Song name
# A B C D E F G H I J K L M N O P Q R S T U V W X Y Z

Tokio Hotel - Spring Nicht tab

--------------------------------------------------------------------------
                     Tokio Hotel - Spring Nicht (Acoustic)              
--------------------------------------------------------------------------
Tabbed by : Feather
Tuning    : Standard

INTRO
e|--------------------------0-00-0-00-0-00--0-00-|
B|--------------------------2-22-2-22-2-22--4-44-|
G|--------------------------2-22-2-22-2-22--4-44-|
D|---6-----4-----2-----1----2-22-2-22-2-22--4-44-|
A|-----7-----6-----4-----2--0-00-0-00-0-00--2-22-|
E|-0-----0-----0-----0------0-00-0-00-0-00--0-00-|2x

VERSE 1
e|--------------------------|-0-00-0-00-0-00--0-00-|   --0-00-0-00-0~-|
B|--------------------------|-2-22-2-22-2-22--4-44-|   --2-22-2-22-2~-|
G|--------------------------|-2-22-2-22-2-22--4-44-|   --2-22-2-22-2~-|
D|---6-----4-----2-----1----|-2-22-2-22-2-22--4-44-|   --2-22-2-22-2~-|
A|-----7-----6-----4-----2--|-0-00-0-00-0-00--2-22-|   --0-00-0-00-0~-|
E|-0-----0-----0-----0------|-0-00-0-00-0-00--0-00-|3x --0-00-0-00-0~-|1x

CHORUS
e|------|-----------------------------------------------|
B|------|-----------------------------------------------|
G|------|------------4-44-4-44--6-66-6-66-6-66--7--6--4-|
D|-4--6-|-7-77-7-77--4-44-4-44--6-66-6-66-6-66--7--6--4-|
A|-4--6-|-7-77-7-77--2-22-2-22--4-44-4-44-4-44--5--4--2-|
E|-2--4-|-5-55-5-55-------------------------------------|2x

       e|---------------------------------------|
       B|---------------------------------------|
       G|------------4-44-4-44------------------|
       D|-7-77-7-77--4-44-4-44--4-4-4-4-4-4--7~-|
       A|-7-77-7-77--2-22-2-22--4-4-4-4-4-4--7~-|
       E|-5-55-5-55-------------2-2-2-2-2-2--5~-|

|----------------------------0-00-0-00-0-00--0-00-|
|----------------------------2-22-2-22-2-22--4-44-|
|-4--------------------------2-22-2-22-2-22--4-44-|
|-4---6-----4-----2-----1----2-22-2-22-2-22--4-44-|
|-2-----7-----6-----4-----2--0-00-0-00-0-00--2-22-|
|---0-----0-----0-----0------0-00-0-00-0-00--0-00-|


VERSE 2
e|--------------------------|-0-00-0-00-0-00--0-00-|   --0-00-0-00-0~-|
B|--------------------------|-2-22-2-22-2-22--4-44-|   --2-22-2-22-2~-|
G|--------------------------|-2-22-2-22-2-22--4-44-|   --2-22-2-22-2~-|
D|---6-----4-----2-----1----|-2-22-2-22-2-22--4-44-|   --2-22-2-22-2~-|
A|-----7-----6-----4-----2--|-0-00-0-00-0-00--2-22-|   --0-00-0-00-0~-|
E|-0-----0-----0-----0------|-0-00-0-00-0-00--0-00-|3x --0-00-0-00-0~-|1x

CHORUS
e|------|-----------------------------------------------|
B|------|-----------------------------------------------|
G|------|------------4-44-4-44--6-66-6-66-6-66--7--6--4-|
D|-4--6-|-7-77-7-77--4-44-4-44--6-66-6-66-6-66--7--6--4-|
A|-4--6-|-7-77-7-77--2-22-2-22--4-44-4-44-4-44--5--4--2-|
E|-2--4-|-5-55-5-55-------------------------------------|2x

e|-----------------------------------------------------------------------|
B|-----------------------------------------------------------------------|
G|------------4-44-4-44---------------------------------------4-44-4-4-4-|
D|-7-77-7-77--4-44-4-44--4-4-4-4-4-4--7-77-7-77--7-7-7-7-7-7--4-44-4-4-4-|
A|-7-77-7-77--2-22-2-22--4-4-4-4-4-4--7-77-7-77--7-7-7-7-7-7--2-22-2-2-2-|
E|-5-55-5-55-------------2-2-2-2-2-2--5-55-5-55--5-5-5-5-5-5-------------|

BRIDGE
e|--------------|-7---7-------|   -----------------0~-|
B|--------------|---5---5-4-5-|   -----------------2~-|
G|-6666-8888-99-|-------------|   -6~---6-----4----2~-|
D|-6666-8888-99-|-------------|   -6~-----7-----6--2~-|
A|-4444-6666-77-|-------------|   -4~-0-----0------0~-|
E|--------------|-------------|4x -----------------0~-|

e|-------------------------------------------------------------|
B|-------------------------------------------------------------|
G|-------6-----4----2----1-------------------------------------|
D|---------7-----6----4----3--4-4-4-4-4-4-xx-x-x4--------------|
A|-----0-----0-----0----0-----4-4-4-4-4-4-xx-x-x4--------------|
E|-2-4------------------------2-2-2-2-2-2-xx-x-x2--------------|


CHORUS
e|------|-----------------------------------------------|
B|------|-----------------------------------------------|
G|------|------------4-44-4-44--6-66-6-66-6-66--7--6--4-|
D|-4--6-|-7-77-7-77--4-44-4-44--6-66-6-66-6-66--7--6--4-|
A|-4--6-|-7-77-7-77--2-22-2-22--4-44-4-44-4-44--5--4--2-|
E|-2--4-|-5-55-5-55-------------------------------------|2x

e|-----------------------------------------------------------------------|
B|-----------------------------------------------------------------------|
G|------------4-44-4-44---------------------------------------4-44-4-4-4-|
D|-7-77-7-77--4-44-4-44--4-4-4-4-4-4--7-77-7-77--7-7-7-7-7-7--4-44-4-4-4-|
A|-7-77-7-77--2-22-2-22--4-4-4-4-4-4--7-77-7-77--7-7-7-7-7-7--2-22-2-2-2-|
E|-5-55-5-55-------------2-2-2-2-2-2--5-55-5-55--5-5-5-5-5-5-------------|

OUTRO
e|-----------------|------------------|
B|-----------------|------------------|
G|-----------------|-4--------------6-|
D|-4-4-4-4-4-4--7~-|-4---6-----4----6-|
A|-4-4-4-4-4-4--7~-|-2-----7-----6--4-|
E|-2-2-2-2-2-2--5~-|---0-----0--------|



Tap to rate this tab
# A B C D E F G H I J K L M N O P Q R S T U V W X Y Z