Song name
# A B C D E F G H I J K L M N O P Q R S T U V W X Y Z

Tokio Hotel - Down On You tab

-----------------------------------------------------------------------------
			     Down On You - Tokio Hotel
-----------------------------------------------------------------------------

Tabbed by:XxGuitarZer0xX

Email:    Spongebobs400s@hotmail.com

Tuning:   Drop D

This is 100% correct and tab by ear, enjoy!





Intro - Guitar 1 
e|---------------------------------|
B|---------------------------------|
G|---7--------7--------7--------7--|
D|----7~-------7~-------7~-------7-|
A|-5~----5-5~-----5-5~-----5-5~----|
D|---------------------------------|

Intro - Guitar 2 - Weird chords i know lol!
e|-10101010101010101010101010101010101010-|
B|-x-x-x-x-x-x-x-x-x-x-x-x-x-x-x-x-x-x-x--|
G|-7-7-7-7-7-7-7-7-7-7-7-7-7-7-7-7-7-7-7--|
D|-x-x-x-x-x-x-x-x-x-x-x-x-x-x-x-x-x-x-x--|
A|-5-5-5-5-5-5-5-5-5-5-5-5-5-5-5-5-5-5-5--|
D|----------------------------------------|




Verse - Guitar 1 (Palm mute all these notes)
e|-----------------------------------------------------------------------|
B|-----------------------------------------------------------------------|
G|-33333333-77777777-1010101010101010-33333333-77777777-1010101010101010-|
D|-33333333-77777777-1010101010101010-33333333-77777777-1010101010101010-|
A|-11111111-55555555-8-8-8-8-8-8-8-8--11111111-55555555-8-8-8-8-8-8-8-8--|
D|-----------------------------------------------------------------------|

Verse - Guitar 2 (Played in various spots)
e|---------------|
B|---------------|
G|---------------|
D|---------------|
A|-8-7-7b8r7-7/5-|
D|---------------|




Pre Chorus - Guitar 1 (Palm mute all these notes)
e|-------------------------------------------------------------------------|
B|-------------------------------------------------------------------------|
G|-33333333-55555555-------------------33333333-55555555----------77777777-|
D|-33333333-55555555-00000000-33333333-33333333-55555555-00000000-77777777-|
A|-11111111-33333333-00000000-33333333-11111111-33333333-00000000-55555555-|
D|-------------------00000000-33333333-------------------00000000----------|

Pre Chorus - Guitar 2 (Played in various spots)
e|---------------|
B|---------------|
G|---------------|
D|---------------|
A|-8-7-7b8r7-7/5-|
D|---------------|




Chorus (part 1) - Both Guitars
e|-------------------------------------------------------------------------|
B|-------------------------------------------------------------------------|
G|-------------------------------------------------------------------------|
D|-33333333-88888888-00000000-88888888-33333333-88888888-00000000-88888888-|
A|-33333333-88888888-00000000-88888888-33333333-88888888-00000000-88888888-|
D|-33333333-88888888-00000000-88888888-33333333-88888888-00000000-88888888-|

Chorus (part 2) - Both Guitars
e|-------------------------------------------------------|
B|-------------------------------------------------------|
G|-33333333-555555555------------------------------------|
D|-33333333-555555555-00000000-3333333-88888888-77777777-|
A|-11111111-333333333-00000000-3333333-88888888-77777777-|
D|--------------------00000000-3333333-88888888-77777777-|

Chorus (part 3) - Both Guitars
e|-------------------|
B|-88888888-77777777-|
G|-77777777-77777777-|
D|-------------------|
A|-------------------|
D|-------------------|




Verse - Guitar 1 (Palm mute all these notes)
e|-----------------------------------------------------------------------|
B|-----------------------------------------------------------------------|
G|-33333333-77777777-1010101010101010-33333333-77777777-1010101010101010-|
D|-33333333-77777777-1010101010101010-33333333-77777777-1010101010101010-|
A|-11111111-55555555-8-8-8-8-8-8-8-8--11111111-55555555-8-8-8-8-8-8-8-8--|
D|-----------------------------------------------------------------------|

Verse - Guitar 2 (Played in various spots)
e|---------------|
B|---------------|
G|---------------|
D|---------------|
A|-8-7-7b8r7-7/5-|
D|---------------|




Pre Chorus - Guitar 1 (Palm mute all these notes)
e|-------------------------------------------------------------------------|
B|-------------------------------------------------------------------------|
G|-33333333-55555555-------------------33333333-55555555----------77777777-|
D|-33333333-55555555-00000000-33333333-33333333-55555555-00000000-77777777-|
A|-11111111-33333333-00000000-33333333-11111111-33333333-00000000-55555555-|
D|-------------------00000000-33333333-------------------00000000----------|

Pre Chorus - Guitar 2 (Played in various spots)
e|---------------|
B|---------------|
G|---------------|
D|---------------|
A|-8-7-7b8r7-7/5-|
D|---------------|




Chorus (part 1) - Both Guitars
e|-------------------------------------------------------------------------|
B|-------------------------------------------------------------------------|
G|-------------------------------------------------------------------------|
D|-33333333-88888888-00000000-88888888-33333333-88888888-00000000-88888888-|
A|-33333333-88888888-00000000-88888888-33333333-88888888-00000000-88888888-|
D|-33333333-88888888-00000000-88888888-33333333-88888888-00000000-88888888-|

Chorus (part 2) - Both Guitars
e|-------------------------------------------------------|
B|-------------------------------------------------------|
G|-33333333-555555555------------------------------------|
D|-33333333-555555555-00000000-3333333-88888888-77777777-|
A|-11111111-333333333-00000000-3333333-88888888-77777777-|
D|--------------------00000000-3333333-88888888-77777777-|

Chorus (part 3) - Both Guitars
e|-------------------|
B|-88888888-77777777-|
G|-77777777-77777777-|
D|-------------------|
A|-------------------|
D|-------------------|




Bridge - Guitar 1
e|-----------------------------------------|
B|-----------------------------------------|
G|-10~-9~-10~-9~-------10~-9~-10~-9~-------|
D|---------------10/7~---------------10/7~-|
A|-----------------------------------------|
D|-----------------------------------------|

Bridge - Guitar 2
e|-------------------------------------------------------------------|
B|-------------------------------------------------------------------|
G|-------------------------------------------------------------------|
D|-8888888888888888-0000000000000000-8888888888888888-00000000000000-|
A|-8888888888888888-0000000000000000-8888888888888888-00000000000000-|
D|-8888888888888888-0000000000000000-8888888888888888-00000000000000-|




Breakdown - Guitar 1
e|-------------------------------|
B|----1----1----1-----1---1----1-|
G|---3----0----2-----2---3----0--|
D|--3----2----3---0h3---3----2---|
A|-1----3----3---------1----3----|
D|-------------------------------|




Minor solo thingy
e|---10--12--13--/17~-|
B|--------------------|
G|--------------------|
D|-12--12--12--12-----|
A|--------------------|
D|--------------------|




Chorus (part 1) - Both Guitars
e|-------------------------------------------------------------------------|
B|-------------------------------------------------------------------------|
G|-------------------------------------------------------------------------|
D|-33333333-88888888-00000000-88888888-33333333-88888888-00000000-88888888-|
A|-33333333-88888888-00000000-88888888-33333333-88888888-00000000-88888888-|
D|-33333333-88888888-00000000-88888888-33333333-88888888-00000000-88888888-|

Chorus (part 2) - Both Guitars
e|-------------------------------------------------------|
B|-------------------------------------------------------|
G|-33333333-555555555------------------------------------|
D|-33333333-555555555-00000000-3333333-88888888-77777777-|
A|-11111111-333333333-00000000-3333333-88888888-77777777-|
D|--------------------00000000-3333333-88888888-77777777-|

Chorus (part 3) - Both Guitars
e|-------------------|
B|-88888888-77777777-|
G|-77777777-77777777-|
D|-------------------|
A|-------------------|
D|-------------------|

Chorus (part 4) - Both Guitars
e|-------------------------------------|
B|-------------------------------------|
G|-33333333-55555555-------------------|
D|-33333333-55555555-00000000-33333333-|
A|-11111111-33333333-00000000-33333333-|
D|-------------------00000000-33333333-|




Outro
e|---------------------|
B|---------------------|
G|-33333333-555555555/-|
D|-33333333-555555555/-|
A|-11111111-333333333/-|
D|---------------------|

Tap to rate this tab
# A B C D E F G H I J K L M N O P Q R S T U V W X Y Z