Song name
# A B C D E F G H I J K L M N O P Q R S T U V W X Y Z

Tokio Hotel - Automatic Acoustic chords

Highlighted       Show chord diagrams
-------------------------------------------------------------------------------
	     Automatic (Acoustic Rolling Stone’s Cover  - Tokio Hotel
-------------------------------------------------------------------------------
Tabbed by: Tatiana –Me- (tokiohotelluvr)-(purplebeagle04)
Email: tokiohotelluvr@yahoo.com

Tuning: Standard w/ Capo on First
Chords Used:
Cadd9
e|----3------------|
B|----3------------|
G|-----------------|
D|--1--------------|
A|----2------------|
E|----x------------|

(For this chord just keep your fingers
in the Cadd9 position but remove you middle finger
and try muting that string, im also not sure what
this chord is so lets just call it,
Ab)
Ab
e|---3-------------|
B|---3-------------|
G|-----------------|
D|-1---------------|
A|---x-------------|
E|---x-------------|

D
e|---2-------------|
B|----3------------|
G|---2-------------|
D|-----------------|
A|---x-------------|
E|---x-------------|

C
e|-----------------|
B|---1-------------|
G|---0-------------|
D|---2-------------|
A|---3-------------|
E|---x-------------|

B
e|---x-------------|
B|---x-------------|
G|---8-------------|
D|---9-------------|
A|---9-------------|
E|---7-------------|

Verse 1:
(Strum Everything Just Once until you get to “But they Never” then strum up and down)
	    Cadd9
You're automatic,
				Ab
And your heart's like an engine
   D			Ab
I die with every beat
	    Cadd9
You're automatic,
				Ab
And your voice is electric
    D				Ab
Why do I still believe?
 	 Cadd9
It's automatic
				Ab
Everywhere in your letter
   D				Ab
A lie that makes me bleed
	 Cadd9
It's automatic
				Ab
When you say things get better
	  D
But they never...

Strumming for chorus is pretty much Down, Down, Down,Up, Down,Up Down,Up (Please check 
my video http://www.youtube.com/watch?v=nYPCXV9I0Dk or the original Tokio Hotel – 
Acoustic Cover for the Rolling Stones and watch Tom play)

Chorus-
		 C
There's no real love in you
	    Ab	 D
There's no real love in you
	    Ab	 C
There's no real love in you
	  Ab	D
Why do I keep loving you

	 Cadd9
It's automatic,
				Ab
Counting cars on a crossroad
	D			Ab
They come and go like you
	  Cadd9
It's automatic,
				Ab
Wtching faces I don't know
    D				Ab
Erase the face of you

	  Cadd9
It's automatic
Systematic
		Ab
So traumatic
		D
You're automatic

	     Ab	 C
There's no real love in you
	     Ab	 D
There's no real love in you
	     Ab  C
There's no real love in you
	  Ab	D		Ab
Why do I keep loving you

	C	Ab
Automatic
	D	Ab
Automatic
	C	Ab
Automatic
	D	Ab
Automatic

C	     B
   Each step, you make
Em	     D
   Each breath you take
C	     B
Your heart. Your soul.
Em	     D
Remote-controlled
C	     B
This life is so sick
C	     B
You're automatic to me

Strum up and down a few times, you would most likely get the strumming if you listen to 
play it…
e|---------------|
B|---------------|
G|--0------------|
D|--4------------|
A|--2------------|
E|--0------------|

Cadd9,
Ab,
D

Chorus-
		 C
There's no real love in you
	    Ab	 D
There's no real love in you
	    Ab	 C
There's no real love in you
	  Ab	D
Why do I keep loving you

    C
Automatic
(There's no real)
    D
	Love in you
    C
	Why do I
    D
	Keep loving you?
 	C
Automatic...

| x  Mute note
============================================================================
Tap to rate this tab
 
# A B C D E F G H I J K L M N O P Q R S T U V W X Y Z