Tokyo Police Club - Frankenstein tab

Intro to Frankenstein by Tokyo Police Club. This is my first tab so pardon any mistakes. 
i have no clue what kinds of effects Josh Hook is using.

standard EADGBe tuning

|----------------8-8-8-8-----------------------------------10-10-10-10----|
|-6-6-6-6-8-8-8-8-------8-8-8-8-8-8-8-8-10-10-10-10-5-5-5-5---------------|
|-------------------------------------------------------------------------| x3
|-------------------------------------------------------------------------|
|-------------------------------------------------------------------------|
|-------------------------------------------------------------------------|

|--------------------------------5-5-5-5-5-5-5-5-5-5-5-5-5-5-5-5----------|
|-------------------------------------------------------------------------|
|-5-5-5-5-5-5-5-5-5-5-5-5-5-5-5-5-----------------------------------------|
|-------------------------------------------------------------------------|
|-------------------------------------------------------------------------|
|-------------------------------------------------------------------------|

|--------------------------------5-5-5-5-------8-8-8-8--------------------|
|---------------------------------------6-6-6-6-------8-8-8-8-------------|
|-5-5-5-5-5-5-5-5-5-5-5-5-5-5-5-5-----------------------------------------|
|-------------------------------------------------------------------------|
|-------------------------------------------------------------------------|
|-------------------------------------------------------------------------|

He also plays this little riff during the song

high e| -13-13-13-13-8-8-8-8-10-10-10-10-13-13-13-13
Tap to rate this tab
 
# A B C D E F G H I J K L M N O P Q R S T U V W X Y Z