Song name
# A B C D E F G H I J K L M N O P Q R S T U V W X Y Z

Tom Cochrane - Lunatic Fringe tab

---------------------------------------------------------------------
Artist: Tom Cochrane & Red Rider
Song: Lunatic Fringe
Transcripted By: Chris McAleenan
---------------------------------------------------------------------

Intro:
      Bm
e:-------------|
B:-------------|
G:-------------|  [Play 4 Times During the Intro]
D:---x--9--9---|
A:---x--9--9---|
E:---x--7--7---|

---------------------------------------------------------------------

The different Riffs Played throughout the song!  [Am,  Bm,  Dm.]

            Am Riff
e:------------------------------------------------------|
B:------------------------------------------------------|
G:------------------------------------------------------|
D:---7--7--------7-7--------7-7--------7-7--------------|
A:---7--7---5h7--7-7---5h7--7-7---5h7--7-7--------------|
E:---5--5-----------------------------------------------|

            Bm Riff
e:------------------------------------------------------|
B:------------------------------------------------------|
G:------------------------------------------------------|
D:---9--9--------9-9--------9-9--------9-9--------------|
A:---9--9---7h9--9-9---7h9--9-9---7h9--9-9--------------|
E:---7--7-----------------------------------------------|

            Dm Riff
e:------------------------------------------------------|
B:------------------------------------------------------|
G:------------------------------------------------------|
D:--12--12----------12-12----------12-12---------12-12--|
A:--12--12---10h12--12-12---10h12--12-12--10h12--12-12--|
E:--10--10----------------------------------------------|

---------------------------------------------------------------------

    That is All you need to know to play the song pretty much!!

           Send Feedback to -  disco_stu12@hotmail.com
Tap to rate this tab
 
# A B C D E F G H I J K L M N O P Q R S T U V W X Y Z