Guitaretab - guitar tabs
Song name
# A B C D E F G H I J K L M N O P Q R S T U V W X Y Z

Tom Gabel - Thrash Unreal tab

Against Me!/Tom gabel - thrash unreal


I am 100% positive this is almost 100% right.


Verse and Chorus

 F
e|-----------------------------|
B|-----------------------------|
G|-----2-----2-----2-----2-----| intro is this once
D|-3-3-3-3-3-3-3-3-3-3-3-3-3-3-|
A|-3-3-3-3-3-3-3-3-3-3-3-3-3-3-|
E|-1-1-1-1-1-1-1-1-1-1-1-1-1-1-|


e|-----------------------------|
B|-----------------------------|
G|-3-3-3-3-3-3-3-3-3-3-3-3-3-3-|
D|-3-3-3-3-3-3-3-3-3-3-3-3-3-3-|
A|-1-1-1-1-1-1-1-1-1-1-1-1-1-1-|
E|-----------------------------|
[ Tab from: http://www.guitaretab.com/t/tom-gabel/174463.html ]
 Dm                               I think it's verse twice, then pre-chorus,
e|-1-1-1-1-1-1-1-1-1-1-1-1-1-1-|  chorus twice 
B|-3-3-3-3-3-3-3-3-3-3-3-3-3-3-|
G|-2-2-2-2-2-2-2-2-2-2-2-2-2-2-|
D|-----------------------------|
A|-----------------------------|
E|-----------------------------|

 F
e|-----------------------------|
B|-----------------------------|
G|-----2-----2-----2-----2-----|
D|-3-3-3-3-3-3-3-3-3-3-3-3-3-3-| ends on this guy right here
A|-3-3-3-3-3-3-3-3-3-3-3-3-3-3-|
E|-1-1-1-1-1-1-1-1-1-1-1-1-1-1-| 


Pre-Chorus

e|----------------------------|----------------------------|
B|----------------------------|----------------------------|
G|-5-5-5-5-5-5-5-5-5-5-5-5-5-5-3-3-3-3-3-3-3-3-3-3-3-3-3-3-|
D|-5-5-5-5-5-5-5-5-5-5-5-5-5-5-3-3-3-3-3-3-3-3-3-3-3-3-3-3-|
A|-3-3-3-3-3-3-3-3-3-3-3-3-3-3-1-1-1-1-1-1-1-1-1-1-1-1-1-1-|
E|----------------------------|----------------------------|

this is the part that goes...
"We do what we do to get by, and then we need a release"

-johnny the mutant



Related for Thrash Unreal tab
Advertisement will be closed in 10 seconds