Song name
# A B C D E F G H I J K L M N O P Q R S T U V W X Y Z

Tom Petty And The Heartbreakers - Something Good Coming tab

Tom Petty and the Heartbreakers - Something Good Coming

This version includes the slide guitar in the background and the solo he does. A lot of 
the bends sound better with a guitar slide but it sounds good without.

No capo
Chords

Em - 022000
C - 032010
G - 320033
D -x00232



      Em       C       G     D
|-----00-------00------33----2---------------------------|
|-----00-------11------33----3---------------------------|
|-----00-------00------00----2---------------------------|
|-----22-------22------00----0---0h2s4s2h0---------------|
|-----22----3--33------22--------------------0-----------|
|--0--00------------3--33--------------------------------|

Same pattern throughout.


1st Solo

|--------------------------------------------------------------------------|
|--------------------------------------------------15h17b18---15--12--12b--|
|--9p7h9-7--2s4b------12h14--12---14s16--14--14----------------------------|
|--------------------------------------------------------------------------|
|--------------------------------------------------------------------------|
|--------------------------------------------------------------------------|

2nd Solo

|-------------------------------------------------17h19--17h19 17 19------|
|---5h7b--5b---3-3s5b----12--15--15s17--15--12b---------------------------|
|-------------------------------------------------------------------------|
|-------------------------------------------------------------------------|
|-------------------------------------------------------------------------|
|-------------------------------------------------------------------------|


|---15p12--------------------------------------|
|----------15 15s17--15--12--10s8b-------------|
|----------------------------------------------|
|----------------------------------------------|
|----------------------------------------------|
|----------------------------------------------|

Listen to the solo's for timings and length of bends etc. quite a simple song but sounds 
awesome if amp is adjusted. Enjoy...
Tap to rate this tab
 
# A B C D E F G H I J K L M N O P Q R S T U V W X Y Z