Song name
# A B C D E F G H I J K L M N O P Q R S T U V W X Y Z

Tommy Emmanuel - Hunt tab

Finger Pick good luck      This took my hours to work out so i hope it's good enough for 
tell me what you think by emailing me at sachel80@hotmail.com
----------------0-3--------3-------3----3---1---------------|
-1-------1-1-3----3------3-3-----3---3--3-----1-------------|
-0----0-----------------0-----0-----------------2-----------|
---------------------0--------------------------------------|
-3----------------2--------1------------2------------0h2----|
------------------------------------------------------------|


----------------0-3--------3-------3-----5-5-6-8------------|
-1-------1-1-3----3------3-3-----3---3---2-2-3-5------------|
-0----0-----------------0-----0----------2-2-3-5------------|
---------------------0-------------------2-2-3-5------------|
-3----------------2--------1--------------------------------|
------------------------------------------------------------|
Tap to rate this tab
 
# A B C D E F G H I J K L M N O P Q R S T U V W X Y Z