Tommy Emmanuel - The Journey tab

-------------------------------------------------------------------------------
			                       The Journey - Tommy Emmanuel
-------------------------------------------------------------------------------
Tabbed by:qzuiilw	
Email:qzuiilw@hotmail.com

Tuning: Standard

From Tommy's Classical Gas cd with the Australian Philharmonic Orchestra.
I have searched high and low on the internet trying to find the tab for this song
and haven't found one yet so i figured i'll try and so it myself, plus i know there's
a lot of people looking for this from all the forums and searches i've gone to trying to find this.
  I have tabbed out the main parts as some of the fills are really hard to hear.
I haven't put the slides,palm muting and the pic slides in because there is just too much of it
but it's all very easy to hear so you'll know when to do these parts when you hear the song.



|-----------------------------------------------------------------------------------------------|
|-----------------------------------------------------------------------------------------------|
|-----------------------------------------------------------------------------------------------|
|------3p0---------------------3p0--------------------3p0---------------------3p0---------------|x2
|---------0h3p0-------------------0h3p0------------------0h3p0-------------------0h3p0----------|
|-0h3p0---------5p3p0-00--0h3p0---------5p3p0-00-0h3p0---------5p3p0-00--0h3p0---------5p3p0-00-|

|----3------5-----3-----3---3---3---3---3---|
|---0------0-----0-----0---3-3-3-3-3-3-3-3--|
|--5------7-----5-----5---5---5---5---5---5-|
|-0------0-----0-----0----------------------|
|-------------------------------------------|
|-------------------------------------------|

|-----------------------------------------------------------------------------------------------|
|-----------------------------------------------------------------------------------------------|
|-----------------------------------------------------------------------------------------------|
|------3p0---------------------3p0--------------------3p0---------------------3p0---------------|x2
|---------0h3p0-------------------0h3p0------------------0h3p0-------------------0h3p0----------|
|-0h3p0---------5p3p0-00--0h3p0---------5p3p0-00-0h3p0---------5p3p0-00--0h3p0---------5p3p0-00-|

|-----3------5-----3-----3----15------15------15-----|
|----0------0-----0-----0---15--15--15--15--15--15---|
|---5------7-----5-----5---17-----17------17------17-|
|--0------0-----0-----0------------------------------|
|----------------------------------------------------|
|----------------------------------------------------|

|-----------------------------------------------------------------------|
|-----------------------------------------------------------------------|
|-----------------------------------------------------------------------|
|------3p0---------------------3p0--------------------3p0---------------|
|---------0h3p0-------------------0h3p0------------------0h3p0----------|
|-0h3p0---------5p3p0-00--0h3p0---------5p3p0-00-0h3p0---------5p3p0-00-|

|--------------------------------------------------------|
|--------------------------------------------------------|
|--------------------------------------------------------|
|-7-5-/9-9~-5~--7-5-/9-9~-5~-6/7~-0-6/7~-0---------------|
|--------------------------------------------------------|
|--------------------------------------------<-<-<-<-<-<-|

|--------------------------------------------------------------|
|--------------------------------------------------------------|
|--------------------------------------------------------------|
|-17~-15~-19~-19~-15~--17~-15~-19~-19~-15~-17/19~\12-17/19~\12-|
|--------------------------------------------------------------|
|--------------------------------------------------------------|

|-17~-15~-19b-15~--17~-15~-19b-15~-|
|----------------------------------|
|----------------------------------|
|----------------------------------|
|----------------------------------|
|----------------------------------|

|------------------------------------------------------------------------------------------|
|------------------------------------------------------------------------------------------|
|------------------------------------------------------------------------------------------|
|-17/19~\12-17/19~\12--17/19~\12-17/19~\12-17/19~\12-17/19~-17/19~\12--17/19~\12-17/19~\12-|
|------------------------------------------------------------------------------------------|
|------------------------------------------------------------------------------------------|

|--------------------------------------------------------------------------------------------------|
|-----------------------3p2p0----------------------------3p2p0---------------------------3p2p0-----|
|-----------------2~-2h3-----3p2p0-----------------2~-2h3-----3p2p0-------------------2h3-----3p2p0|
|0h2-3~2h3-5~3h5-5-5--------------0h2-3~2h3-5~3h5-5-5--------------0h2-3~2h3-5~3h5-5-5-------------|
|--------------------------------------------------------------------------------------------------|
|--------------------------------------------------------------------------------------------------|

|---------------------------------------------------------------------------|
|---------------------------------------------------------------------------|
|-141414\121212\101010\999\101010\999\777\555-------------------------------|
|-121212\101010\8-8-8-\777\8-8-8-\777\555\333-------------------------------|
|---------------------------------------------------------------------------|
|---------------------------------------------------------------------------|

|--------------------------------------------------------------------------------------------------|
|-----------------------3p2p0----------------------------3p2p0---------------------------3p2p0-----|
|-----------------2~-2h3-----3p2p0-----------------2~-2h3-----3p2p0-------------------2h3-----3p2p0|
|0h2-3~2h3-5~3h5-5-5--------------0h2-3~2h3-5~3h5-5-5--------------0h2-3~2h3-5~3h5-5-5-------------|
|--------------------------------------------------------------------------------------------------|
|--------------------------------------------------------------------------------------------------|

|---------------------------------------------|
|---------------------------------------------|
|-141414\121212\101010\999\101010\999\777\555-|
|-121212\101010\8-8-8-\777\8-8-8-\777\555\333-|
|---------------------------------------------|
|---------------------------------------------|

|--------------------------------------------------------------------------------|
|------------------------13p11p10-------------------------------13p11p10---------|
|--------------9--9-11h12--------13p11p10-------------9--9-11h12--------13p11p10-|
|-9h11h12-11h12-12-----------------------9h11h12-11h12-12------------------------|
|--------------------------------------------------------------------------------|
|--------------------------------------------------------------------------------|

|------------------------------------------------------------------------18br17--|
|------------------------13p11p10------------------------------------------------|
|--------------9--9-11h12--------13p11p10-141414\121212\101010\999\101010--------|
|-9h11h12-11h12-12------------------------121212\101010\8-8-8-\777\8-8-8---------|
|--------------------------------------------------------------------------------|
|--------------------------------------------------------------------------------|

|----------------|
|----------------|
|----------------|
|-2~--3~--5~--7~-|
|-2~--3~--5~--7~-|
|----------------|

|------------------17b-----------------------------------------------------------7h9h10-|
|---------------------17p15\14---------------------------------------------7h9h10-------|
|-----------------------------16p14\12-------------------------------7h9h10-------------|
|-18~-17~21~21br17--------------------14h15--18~-17~21~21br17--7h8h10-------------------|
|---------------------------------------------------------------------------------------|
|---------------------------------------------------------------------------------------|

|-17~-15~-19-19br15-151515h19p151515h17p151515-17~-15~-19-19br15------------|
|---------------------------------------------------------------------------|
|---------------------------------------------------------------------------|
|---------------------------------------------------------------------------|
|---------------------------------------------------------------------------|
|---------------------------------------------------------------------------|

|-21brb21b21brp19p17-17p19p15-21bp17p15-17p19p15-21bp17p15--17p19p15-|
|--------------------------------------------------------------------|
|--------------------------------------------------------------------|
|--------------------------------------------------------------------|
|--------------------------------------------------------------------|
|--------------------------------------------------------------------|

|------------------------------------------|
|------------------------------------------|
|-777-777----------------------------------|
|-777-777-777---7-5-/9-9~-5~--7-5-/9-9~-5~-|
|-555-555-555------------------------------|
|------------------------------------------|

|-----------------------------------------------------------------------------------------------|
|-----------------------------------------------------------------------------------------------|
|-----------------------------------------------------------------------------------------------|
|------3p0---------------------3p0--------------------3p0---------------------3p0---------------|
|---------0h3p0-------------------0h3p0------------------0h3p0-------------------0h3p0----------|
|-0h3p0---------5p3p0-00--0h3p0---------5p3p0-00-0h3p0---------5p3p0-00--0h3p0---------5p3p0-00-|


************************************

| /   slide up
| \   slide down
| <   Pic slide
| h   hammer-on
| p   pull-off
| ~   vibrato
| +   harmonic
| x   Mute note
| b   Bend
| pb  Pre-bend
| br  Bend release
| pbr Pre-bend release
| brb Bend release bend

************************************
Please tell me what you think any questions or comments are welcome 
Tap to rate this tab
 
# A B C D E F G H I J K L M N O P Q R S T U V W X Y Z