Song name
# A B C D E F G H I J K L M N O P Q R S T U V W X Y Z

Tool - Jerk Off tab

Figure 1
-------------------------------------------------------------|
-------------------------------------------------------------|
-------------------------------------------------------------|
-----14--15-14--14--15p14------------------------------------|  x4
---14--14-----14--14-----15----------------------------------|
-------------------------------------------------------------|

Figure 2
-------------------------------------------------------------|
-------------------------------------------------------------|
-------------------------------------------------------------|
-------------------------------------------------------------|  x4
------7---8-7---7---8p7--------------------------------------|
----7---7-----7---7-----8------------------------------------|

Figure 3

-------------------------------------------------------------|
-------------------------------------------------------------|
-------------------------------------------------------------|
-------------------------------------------------------------|
-----------8--7-----------8--7-------------------------------|
-----------8--7-----------8--7-------------------------------|

Figure 4
-------------------------------------------------------------|
-------------------------------------------------------------|
-------------------------------------------------------------|
-------12-0-0-12-0-12-0-12----2-3----------------------------|  x4
-------12-0-0-12-0-12-0-12----2-3----------------------------|
-------12-0-0-12-0-12-0-12----2-3----------------------------|

Figure 5

--------------------------------------------------------------|
--------------------------------------------------------------|
--------------------------------------------------------------|
--------------------------------------------------------------|
---555555555555--777--333333----------------------------------|
---555555555555--777--333333----------------------------------|
pm -----------------------------------------------------------|

Figure 6

-----------------------------------------------------|
-----------------------------------------------------|
-----------------------------------------------------|
---5-0-5-0-5-0-7-0-3-3-3-0---------------------------| x4
---5-0-5-0-5-0-7-0-3-3-3-0---------------------------|
---5-0-5-0-5-0-7-0-3-3-3-0---------------------------|

Figure 2 x4

Figure 3 x2

Repeat Figure 4-6

After figure 6

Figure 2 once then this

----------------------------------------------------------------------------------|
----------------------------------------------------------------------------------|
----------------------------------------------------------------------------------|
----------------------------------------------------------------------------------|
-2-3-2--2--3p----3--4-3--3--4p---2--3-2--2--3p----3--4-3--3--4p---4--5-4--4--5p---|
2-2----2-2---4--3-3-----3-3-----2-2-----2-2----4-3-3-----3-3---5-4-4-----4-4------|

Figure 7

--------------------------------------|
--------------------------------------|
--------------------------------------|
------10--8---------------------------|
------10--8---------------------------|
------10--8---------------------------|


Rest until maynard screams "shoot you myself!!!!!!"

Then go crazy

Figure 6 x6

---------------------------|
---------------------------|
---------------------------|
---------------------------|
-------14-(14)-------------|
-------14-(14)-------------|

Figure 8

-------------------------------------|
-------------------------------------|
-------------------------------------|
---12-15--10--7--10/12--12/15--  x 4-|
---12-15--10--7--10/12--12/15--------|
---12-15--10--7--10/12--12/15--------|

Fifure 6 x7


Finish with...
----------------------------------|
----------------------------------|
----------------------------------|
----5-0-5-0-5-0-5-0-5-5-5---------|
----5-0-5-0-5-0-5-0-5-5-5---------|
----5-0-5-0-5-0-5-0-5-5-5---------|

hope this tab was helpful
Tap to rate this tab
 
# A B C D E F G H I J K L M N O P Q R S T U V W X Y Z