Guitaretab - guitar tabs
Song name
# A B C D E F G H I J K L M N O P Q R S T U V W X Y Z
Home / T / Tool / Opiate tab

Tool - Opiate tab

 Artist - Tool
 Song - Opiate
 Album - Opiate (EP)

 Dropped D tuning
 Q=85
 4/4

I suggest you, to just just an index finger of your fretting hand, in main parts.


       PM.    
E|---------------------------------|
B|---------------------------------|
G|---------------------------------| x4
D|-7/9-----9---0-2---0-2---3-3-3---| 
A|-7/9-----9---0-2---0-2---3-3-3---|
D|-7/9-9-9-9---0-2---0-2---3-3-3---|


E|---------------------------------|
B|---------------------------------|
G|---------------------------------| x4
D|-7/9---------0-2---------3-------|
A|-7/9---------0-2---------3-------|
D|-7/9---------0-2---------3-------|


   PM.......
E|---------------------------------|
B|---------------------------------|
G|---------------------------------| x4
D|---------------------------------|
A|---------------------------------|
D|-7/9-9-9-9-----------------------|


   PM.......
E|---------------------------------|
B|---------------------------------|
G|---------------------------------| x4
D|-------------0-2---0-2---3-3-3---| 
A|-------------0-2---0-2---3-3-3---|
D|-7/9-9-9-9---0-2---0-2---3-3-3---|


E|-----------------------------------------|
B|-10-12-12-12-12-----5------5----6-6-6----|
G|-9--11-11-11-11-----4------4----5-5-5----| x8
D|-7-/9--9--9--9----0-2----0-2----3-3-3----|
A|-7-/9--9--9--9----0-2----0-2----3-3-3----|
D|-7-/9--9--9--9----0-2----0-2----3-3-3----|


             rest     Is it just me or RATM for real ripped this part off?
E|-----------------|-----------------|-----------------|-----------------|
B|-3-3---3-3-------|-3-3---3-3-------|-3-3---3-3-------|-3-3---3-3b------|
G|-2-2---2-2-------|-2-2---2-2-------|-2-2---2-2-------|-2-2---2-2b------|
D|-0-0---0-0-------|-0-0---0-0-------|-0-0---0-0-------|-0-0---0-0-------|
A|-0-0---0-0-------|-0-0---0-0-------|-0-0---0-0-------|-0-0---0-0-------|
D|-0-0---0-0-------|-0-0---0-0-------|-0-0---0-0-------|-0-0---0-0-------|

           Let ring
E|-----------------|-----------------|-----------------|-----------------|
B|-3-3---3-3-------|-3-3---3-3-------|-3-3---3-3-------|-3-3---3-3b------|
G|-2-2---2-2-------|-2-2---2-2-------|-2-2---2-2-------|-2-2---2-2b------|
D|-0-0---0-0-------|-0-0---0-0-------|-0-0---0-0-------|-0-0---0-0-------|
A|-0-0---0-0-------|-0-0---0-0-------|-0-0---0-0-------|-0-0---0-0-------|
D|-0-0---0-0-------|-0-0---0-0-------|-0-0---0-0-------|-0-0---0-0-------|



E|-5-5---5-5---5-5---5-4---4-4-4-4-|
B|-3-3---3-3---3-3---3-3---3-3-3-3-|
G|-2-2---2-2---2-2---2-2---2-2-2-2-| 3x
D|-0-0---0-0---0-0---0-0---0-0-0-0-|
A|-0-0---0-0---0-0---0-0---0-0-0-0-|
D|-0-0---0-0---0-0---0-0---0-0-0-0-|

E|-5-5---5-5---5-5---5-5b----------|
B|-3-3---3-3---3-3---3-3b----------|
G|-2-2---2-2---2-2---2-2b----------|
D|-0-0---0-0---0-0---0-0-----------|
A|-0-0---0-0---0-0---0-0-----------|
D|-0-0---0-0---0-0---0-0-----------|


E|---------------------------------|
B|---------------------------------|
G|---------------------------------| x8
D|-7/9-9-9-9---0-2---0-2---3-3-3---| 
A|-7/9-9-9-9---0-2---0-2---3-3-3---|
D|-7/9-9-9-9---0-2---0-2---3-3-3---|

[ Tab from: http://www.guitaretab.com/t/tool/19559.html ]
E|-------------|---|---|---|---|---|
B|-------------|---|---|---|---|---|
G|-------------|---|---|---|---|---|
D|-9-----------|---|---|---|---|---|
A|-9-----------|---|---|---|---|---|
D|-9-----------|---|---|---|---|---|


   PM.......  Don't PM for the 8th time
E|---------------------------------|
B|---------------------------------|
G|---------------------------------| x8
D|-9-9-9-9-9-----------------------| 
A|-9-9-9-9-9-----------------------|
D|-9-9-9-9-9-----------------------|


E|-----------------------------------------|
B|-10-12-12-12-12-----5------5----6-6-6----|
G|-9--11-11-11-11-----4------4----5-5-5----| x12
D|-7-/9--9--9--9----0-2----0-2----3-3-3----|
A|-7-/9--9--9--9----0-2----0-2----3-3-3----|
D|-7-/9--9--9--9----0-2----0-2----3-3-3----|


             rest                                      
E|-----------------|-----------------|-----------------|-----------------|
B|-3-3---3-3-------|-3-3---3-3-------|-3-3---3-3-------|-3-3---3-3b------|
G|-2-2---2-2-------|-2-2---2-2-------|-2-2---2-2-------|-2-2---2-2b------|
D|-0-0---0-0-------|-0-0---0-0-------|-0-0---0-0-------|-0-0---0-0-------|
A|-0-0---0-0-------|-0-0---0-0-------|-0-0---0-0-------|-0-0---0-0-------|
D|-0-0---0-0-------|-0-0---0-0-------|-0-0---0-0-------|-0-0---0-0-------|


           Let ring           
E|-----------------|-----------------|-----------------|-----------------|
B|-3-3---3-3-------|-3-3---3-3-------|-3-3---3-3-------|-3-3---3-3b------|
G|-2-2---2-2-------|-2-2---2-2-------|-2-2---2-2-------|-2-2---2-2b------|
D|-0-0---0-0-------|-0-0---0-0-------|-0-0---0-0-------|-0-0---0-0-------|
A|-0-0---0-0-------|-0-0---0-0-------|-0-0---0-0-------|-0-0---0-0-------|
D|-0-0---0-0-------|-0-0---0-0-------|-0-0---0-0-------|-0-0---0-0-------|


E|---------------------------------|
B|---------------------------------|
G|---------------------------------| x4
D|-0-------0-------0-------0-------| 
A|-0-------0-------0-------0-------|
D|-0-------0-------0-------0-------|

E|---------------------------------|
B|---------------------------------|
G|---------------------------------| x4
D|---------------------------------|
A|---------------------------------|
D|-0-0-0-0-0-0-0-0-0-0-0-0-0-0-0-0-|


E|--------------|-2------------|-2------------|--------------|
B|-3------------|-3------------|-3------------|--------------|
G|-2------------|-2------------|-2------------|--------------| 
D|-0------------|-0------------|-0------------|--------------|
A|-0------------|-0------------|-0------------|--------------|
D|-0------------|-0------------|-0------------|--------------|


E|---------------------------------|
B|---------------------------------|
G|---------------------------------| x4
D|---------------------------------|
A|---------------------------------|
D|-0-0-0-0-0-0-0-0-0-0-0-0-0-0-0-0-|


   |---3---|           |---3---|
E|-----------------------------------------|
B|-------------3-------------------3-------|
G|-------------2-------------------2-------| x4
D|-0---0---0---0-------0---0---0---0-------|
A|-0---0---0---0-------0---0---0---0-------|
D|-0---0---0---0-------0---0---0---0-------|


E|--------------|
B|--------------|
G|-1------------| 
D|-0------------| 
A|-0------------|
D|-0------------|
Related for Opiate tab
Opiate chords by Tool