Song name
# A B C D E F G H I J K L M N O P Q R S T U V W X Y Z

Toy Dolls - Boccherini tab

boccherini 



the toy dolls



album: our last live dvd



TRANSCRIBED BY RUDY GUZMAN



guzman_84@hotmail.com



e:------|
B:------|
G:-9-9--|
D:-9-9--|
A:-7-7--|
E:-0-0--|
                                               
e:--------------------------------------------------------------|
B:-10-9-10-12-10------------------------------------------------|
G:---------------------6-6-9-9-7-7---7-6-7-9-7----------7-7p6-6-|
D:----------------7-7-------------------------------6-6---------|
A:----------------------------------------------7-7-------------|
E:--------------------------------------------------------------|

e:--------------------------------------------------------------------------|
B:-10------------10------------10----9-------10--7h9p7h9p7h9p7h9p7h9p7------|
G:----11-9-8-8------11-9-8-8------11----9-------------------------------7---|
D:----------------------------------------11--------------------------------|
A:--------------------------------------------------------------------------|
E:--------------------------------------------------------------------------|

e:------|
B:------|
G:-9-9--|
D:-9-9--|
A:-7-7--|
E:-0-0--|
                                               
e:--------------------------------------------------------------|
B:-10-9-10-12-10------------------------------------------------|
G:---------------------6-6-9-9-7-7---7-6-7-9-7----------7-7p6-6-|
D:----------------7-7-------------------------------6-6---------|
A:----------------------------------------------7-7-------------|
E:--------------------------------------------------------------|

e:--------------------------------------------------------------------------|
B:-10------------10------------10----9-------10--7h9p7h9p7h9p7h9p7h9p7------|
G:----11-9-8-8------11-9-8-8------11----9-------------------------------7---|
D:----------------------------------------11--------------------------------|
A:--------------------------------------------------------------------------|
E:--------------------------------------------------------------------------|

e:-------------------------------------|
B:-------------------------------------|
G:-9-99999999999999999999999999999--9--|
D:-9-99999999999999999999999999999--9--|
A:-7-77777777777777777777777777777--7--|
E:-0-00000000000000000000000000000--0--|



hillo son mex

16/05/12
Tap to rate this tab
# A B C D E F G H I J K L M N O P Q R S T U V W X Y Z