Song name
# A B C D E F G H I J K L M N O P Q R S T U V W X Y Z

Tracy Chapman - Fast Car tab

-------------------------------------------------------------------------------
                           Fast Car - Tracy Chapman
-------------------------------------------------------------------------------
Tabbed by:Tornhearts76
E-mail:Jackohearts_76@hotmail.co.uk

Tuning:Standard

Capo on 2nd fret (Sounds fine without, i also like it on the 5th fret)

Verse

e|---------------------------------------------------------------------------|
B|--0h1--0---3--3-----------8--------7---7-----------------------------------|
G|--0---------------0-----------0-----------0--------------------------------|
D|---------------------------------------------------------------------------|
A|--3--------------------------------5---------------------------------------|
E|-----------3--------------0------------------------------------------------|

e|---------------------------------------------------------------------------|
B|--0h1--0---3--3-----------8--------7---7-----------------------------------|
G|--0---------------0-----------0-----------0--------------------------------|
D|---------------------------------------------------------------------------|
A|--3--------------------------------5---------------------------------------|
E|-----------3--------------0------------------------------------------------|

e|---------------------------------------------------------------------------|
B|--0h1--0---3--3-----------8------10--8----7-----8----7---------------------|
G|--0---------------0-----------0--------------0-----------------------------|
D|---------------------------------------------------------------------------|
A|--3---------------------------------------5--------------------------------|
E|-----------3--------------0------------------------------------------------|

e|---------------------------------------------------------------------------|
B|--0h1--0---3--3-----------8--------7---7-----------------------------------|
G|--0---------------0-----------0-----------0--------------------------------|
D|---------------------------------------------------------------------------|
A|--3--------------------------------5---------------------------------------|
E|-----------3--------------0------------------------------------------------|
   
    Chorus

      C     G    Em   D       C   Em  D         C  Em   D         C   D

e|----0-----2----0----2----|--0---0---2~3~2--|--0---0---2~3~2--|--0---2------|
B|----1-----2----0----3----|--1---0---3------|--1---0---3------|--1---3------|
G|----0-----0----0----2----|--0---0---2------|--0---0---2------|--0---2------|
D|----2-----0----2----0----|--2---2---0------|--2---2---0------|--2---0------|
A|----3-----2----2---------|--3---2----------|--3---2----------|--3----------|
E|----------3----0---------|------0----------|------0----------|-------------|

    Verse

e|---------------------------------------------------------------------------|
B|--0h1--0---3--3-----------8--------7---7-----------------------------------|
G|--0---------------0-----------0-----------0--------------------------------|
D|---------------------------------------------------------------------------|
A|--3--------------------------------5---------------------------------------|
E|-----------3--------------0------------------------------------------------|

Outro

e|---------------------------------------------------------------------------|
B|--0h1--0---3---------------------------------------------------------------|
G|--0------------------------------------------------------------------------|
D|---------------------------------------------------------------------------|
A|--3------------------------------------------------------------------------|
E|-----------3---------------------------------------------------------------|

************************************

| h   hammer-on

************************************
Tap to rate this tab
# A B C D E F G H I J K L M N O P Q R S T U V W X Y Z