Song name
# A B C D E F G H I J K L M N O P Q R S T U V W X Y Z

Trans Siberian Orchestra - Christmas Canon Rock tab

This version doesn't include the tapping solo. I can't quite do that... but this is the 
part of the song on guitar.

e-12-9-10-12-9-10-12-0---------------------------------------------------|
B----------------------7-9-10-12-14-15-14-10-12-14-2-3-5-7-5-4-5-2-3-5-3-|
G------------------------------------------------------------------------|
D------------------------------------------------------------------------|
A------------------------------------------------------------------------|
E------------------------------------------------------------------------|

e------------------------------------------------------------------------|
B-7-5-3-2-0-2-0---0-2---0-2-0-7-5-2-5-7-5-6-9-10-12-14-15-16-------------|
G---------------2-----2--------------------------------------------------|
D------------------------------------------------------------------------|
A------------------------------------------------------------------------|
E------------------------------------------------------------------------|


and that is it. Hope it works for you!
Tap to rate this tab
# A B C D E F G H I J K L M N O P Q R S T U V W X Y Z