Guitaretab - guitar tabs
Song name
# A B C D E F G H I J K L M N O P Q R S T U V W X Y Z

Transmetal - Killers tab

 repeat
e|--------------------------------------|
B|--------------------------------------|
G|--------------------------------------|
D|--------------------------------------|	
A|--------------------------------------|
E|-10---10--10-10-13--12-12-10-10--8-10-|

  repeat
e|---------------------------------------|
B|---------------------------------------|
G|---------------------------------------|
D|---------------------------------------|
A|-12---12--12-12-15--14-14-12-12--10-12-|
E|---------------------------------------|



  pm..................  
e|----------------------------|
B|----------------------------|
G|----------------------------|
D|-12-12-12-12-12-12-12-12-12-|
A|-12-12-12-12-12-12-12-12-12-|
E|-10-10-10-10-10-10-10-10-10-|


verse
e|-----------------------|
B|-----------------------|
G|---------15---------12-|
D|-12------15---------12-|
A|-12------13---------10-|
E|-10--------------------|

  pm..................  
e|----------------------------|
B|----------------------------|
G|----------------------------|
D|-12-12-12-12-12-12-12-12-12-|
A|-12-12-12-12-12-12-12-12-12-|
E|-10-10-10-10-10-10-10-10-10-|

e|-----------------------|
B|-----------------------|
G|---------15---------12-|
D|-12------15---------12-|
A|-12------13---------10-|
E|-10--------------------|


  repeat 2 times
e|--------------------------------|
B|--------------------------------|
G|--------------------------------|
D|-12-12-12-12-12-12-12--15-14-10-|
A|-12-12-12-12-12-12-12--15-14-10-|
E|-10-10-10-10-10-10-10--13-12-8--|


e|------------------------------------------------------------|
B|------------------------------------------------------------|
G|------------------------------------------------------------|
D|-12--12-12-12--12-12-12--15-14--10--8-8-8-8--10-10-10-10----|
A|-12--12-12-12--12-12-12--15-14--10--8-8-8-8--10-10-10-10----|
E|-10--10-10-10--10-10-10--13-12--8---6-6-6-6--8--8--8--8-----|

  pm..................  
e|----------------------------|
B|----------------------------|
G|----------------------------|
D|-12-12-12-12-12-12-12-12-12-|
A|-12-12-12-12-12-12-12-12-12-|
E|-10-10-10-10-10-10-10-10-10-|

  2 times
e|-----------------------|
B|-----------------------|
G|---------15---------12-|
D|-12------15---------12-|
A|-12------13---------10-|
E|-10--------------------|

verse
e|-----------------------|
B|-----------------------|
G|---------15---------12-|
D|-12------15---------12-|
A|-12------13---------10-|
E|-10--------------------|

  pm..................  
e|--------------------------------|
B|--------------------------------|
G|--------------------------------|
D|-12-12-12-12-12-12-12-12-12--12-|
A|-12-12-12-12-12-12-12-12-12--12-|
E|-10-10-10-10-10-10-10-10-10--10-|

e|-----------------------|
B|-----------------------|
G|---------15---------12-|
D|-12------15---------12-|
A|-12------13---------10-|
E|-10--------------------|


  repeat 2 times
e|--------------------------------|
B|--------------------------------|
G|--------------------------------|
D|-12-12-12-12-12-12-12--15-14-10-|
A|-12-12-12-12-12-12-12--15-14-10-|
E|-10-10-10-10-10-10-10--13-12-8--|


e|------------------------------------------------------------|
B|------------------------------------------------------------|
G|------------------------------------------------------------|
D|-12--12-12-12--12-12-12--15-14--10--8-8-8-8--10-10-10-10----|
A|-12--12-12-12--12-12-12--15-14--10--8-8-8-8--10-10-10-10----|
E|-10--10-10-10--10-10-10--13-12--8---6-6-6-6--8--8--8--8-----|

[ Tab from: http://www.guitaretab.com/t/transmetal/169890.html ]
  solo                                              repeat 2 times                   4 times
e|-----------------------------------------------|-----------------------------------|-19b-|
B|-----------------------------------------------|-----------------------------------|-----|
G|-10AHb~~~--10AH~~~--10AH~~~---10b--8b--7b~~~---|-17-17-19-17-17-20-17-17--22-17-20-|-----|
D|-----------------------------------------------|-----------------------------------|-----|
A|-----------------------------------------------|-----------------------------------|-----|
E|-----------------------------------------------|-----------------------------------|-----|

   3 1/2 times
e|14-17-16-14-----|-14-16-14---------------------------------------------------------------|
B|-------------17-|----------17-14-17-14-17-14--------------13131313-15151515-16161616-1313|
G|----------------|----------------------------16-14-16AHb---------------------------------|
D|----------------|------------------------------------------------------------------------|
A|----------------|------------------------------------------------------------------------|
E|----------------|------------------------------------------------------------------------|
 
                                         repeat                      repeat
                                   t        t                   t         t        t
e|-------------1414-1515-17-19b-|-17p13p10-15p12p10----------|-15p12p10-15p13p10-15p12p10-|
B|1515-171717-------------------|----------------------------|----------------------------|
G|------------------------------|----------------------------|----------------------------|
D|------------------------------|----------------------------|----------------------------|
A|------------------------------|----------------------------|----------------------------|
E|------------------------------|----------------------------|----------------------------|

          repeat                     repeat                                bar////      bar
e|-----14-17-14----14-17-14-|----12-15-12----12-15-12-|------------------------------------|
B|-/16----------16----------|-14----------14----------|------------------------------------|
G|--------------------------|-------------------------|-9/8/7/6/5/4/3/2/1-0AH~~------------|
D|--------------------------|-------------------------|------------------------------2AH---|
A|--------------------------|-------------------------|------------------------------------|
E|--------------------------|-------------------------|------------------------------------|

     bar/-/-/-/-/-/-/
e|------------------------------|
B|------------------------------|
G|------------------------------|
D|------------------------------|
A|--0---------------------------|
E|------------------------------|



  repeat 2 times
e|--------------------------------|
B|--------------------------------|
G|--------------------------------|
D|-12-12-12-12-12-12-12--15-14-10-|
A|-12-12-12-12-12-12-12--15-14-10-|
E|-10-10-10-10-10-10-10--13-12-8--|

e|------------------------------------------------------------|
B|------------------------------------------------------------|
G|------------------------------------------------------------|
D|-12--12-12-12--12-12-12--15-14--10--8-8-8-8--10-10-10-10----|
A|-12--12-12-12--12-12-12--15-14--10--8-8-8-8--10-10-10-10----|
E|-10--10-10-10--10-10-10--13-12--8---6-6-6-6--8--8--8--8-----|




e|------------------------------------------------------------|
B|------------------------------------------------------------|
G|------------------------------------------------------------|
D|-12-12-12-12-12-12-12-12-12-12-12-12-12-12-12-12-12-12-12-12|
A|-12-12-12-12-12-12-12-12-12-12-12-12-12-12-12-12-12-12-12-12|
E|-10-10-10-10-10-10-10-10-10-10-10-10-10-10-10-10-10-10-10-10|


e|-------------------|
B|-------------------|
G|-------------------|
D|-12-------10---12--|
A|-12-------10---12--|
E|-10-------8----10--|
Related for Killers tab