Song name
# A B C D E F G H I J K L M N O P Q R S T U V W X Y Z

Transmetal - Exhumado tab

Exhumado
Transmetal
Sepelio en el mar 

Transcripcion por Edgar Corona.
Los Angeles, CA
e-mail..www.edcarnage@hotmail.com
si necesitan una tab de estos monos...

Tuning's (D A D G B E) 
   
 Grt1 & 2                                                                
E||----------------------------||-----------------------------------|
B||----------------------------||-----------------------------------|
G||----------------------------||*----------------------------------|
D||--2>------------------------||*----------------------------------|
A||--2>------------------------||-----------------------------------|
E||--0>--------0-0-0-0-0-0-0-0-||---0-0-0-0-0-0-0-0-0-0-0-0-0-0-0-0-|
                                                           
--------------------------|--------------------------------|
--------------------------|--------------------------------|
--------------------------|--------------------------------|
--9/-8--7/-6--9/-8--7/-6--|--------------------------------|
--7/-6--5/-4--7/-6--5/-4--|--------------------------------|
--------------------------|--0-0-0-0-0-0-0-0-0-0-0-0-0-0-0-|
                                            
--------------------------|----------------------------------|
--------------------------|----------------------------------|
--------------------------|----------------------------------|
--9/-8--7/-6--9/-8--7/-6--|----------------------------------|
--7/-6--5/-4--7/-6--5/-4--|----------------------------------|
--------------------------|--0-0-0-0-0-0-0-0-0-0-0-0-0-0-0-0-|
                                                              
--------------------------|----------------------------------|
--------------------------|----------------------------------|
--------------------------|----------------------------------|
--9/-8--7/-6--9/-8--7/-6--|----------------------------------|
--7/-6--5/-4--7/-6--5/-4--|----------------------------------|
--------------------------|--0-0-0-0-0-0-0-0-0-0-0-0-0-0-0-0-|
                                                          
--------------------------|----------------------------------|
--------------------------|----------------------------------|
--------------------------|----------------------------------|
--9/-8--7/-6--9/-8--7/-6--|----------------------------------|
--7/-6--5/-4--7/-6--5/-4--|----------------------------------|
--------------------------|--0-0-0-0-0-0-0-0-0-0-0-0-0-0-0-0-|
                                                                        
------------------|-----------|-----------|-------------------------------|
------------------|-----------|-----------|-------------------------------|
------------------|-----------|-----------|-------------------------------|
------------------|--7~-------|-----------|-------------------------------|
------------------|--5~-------|--8~-------|--7/-6--10/-9------------------|
--0-0-0-0-0-0-0-0-|-----------|--6~-------|--5/-4--8/--7--0-0-0-0-0-0-0-0-|

                                                                          3x
----------------------------------|-----------|-----------|----------------||
----------------------------------|-----------|-----------|----------------||
----------------------------------|-----------|-----------|---------------*||
----------------------------------|--7~-------|-----------|---------------*||
----------------------------------|--5~-------|--8~-------|--7/-6--10/-9---||
--0-0-0-0-0-0-0-0-0-0-0-0-0-0-0-0-|-----------|--6~-------|--5/-4--8/--7---||

Los verso entra en la segunda vez................................Luego>>>v
  Grt's 1 & 2                                                                      
-----|--------------------------|--------------------------|-----------|
-----|--------------------------|--------------------------|-----------|
-----|--------------------------|--------------------------|-----------|
--2--|--------------------------|--------------------------|-----------|
--2--|--------------------------|--------------------------|--9--10----|
--0--|--0--0--0--0--0--0--0--0--|--0--0--0--0--0--0--0--0--|--7--8-----|

--------------------------|--------------------------|-----------|
--------------------------|--------------------------|-----------|
--------------------------|--------------------------|-----------|
--------------------------|--------------------------|-----------|
--------------------------|--------------------------|--9--10----|
--0--0--0--0--0--0--0--0--|--0--0--0--0--0--0--0--0--|--7--8-----|
 
Aqui entran los otros versos en la 2nd vez................                                          Grt's 1 & 2                            
|-------------------|------------------|-----------|------------------|
|-------------------|------------------|-----------|------------------|
|*------------------|------------------|-----------|------------------|
|*------------------|------------------|-----------|------------------|
|-------------------|------------------|--9--10----|------------------|
|---0-0-0-0-0-0-0-0-|--0-0-0-0-0-0-0-0-|--7--8-----|--0-0-0-0-0-0-0-0-|
    
                                               6x           
------------------|---------------------------------|
------------------|--------a.h.-------------a.h.----|
------------------|--------5-----------------3-----*|
------------------|--5--7--------------3--5--------*|
------------------|---------------------------------|
--0-0-0-0-0-0-0-0-|---------------------------------|

Ahora lo mismo mas rapido......vvvvvvvvv  Grt's 1& 2
|-------------------|------------------|-----------|------------------|
|-------------------|------------------|-----------|------------------|
|*------------------|------------------|-----------|------------------|
|*------------------|------------------|-----------|------------------|
|-------------------|------------------|--9--10----|------------------|
|---0-0-0-0-0-0-0-0-|--0-0-0-0-0-0-0-0-|--7--8-----|--0-0-0-0-0-0-0-0-|
    
                                                   4x           
------------------|---------------------------------|
------------------|--------a.h.-------------a.h.----|
------------------|--------5-----------------3-----*|
------------------|--5--7--------------3--5--------*|
------------------|---------------------------------|
--0-0-0-0-0-0-0-0-|---------------------------------|

Ahora lo que sigue......vvvvv

  Gtr II          2x
|------------------|
|------------------|
|------------------|
|-2-5-4-----7-5----|
|-2-3-2-5-4-5-3----|
|-0-----3-2--------|
 
 Gtr I            2x  Gtr I 
|------------------|
|------------------|
|------------------|
|-2-5-4-----7-5----|
|-2-3-2-5-4-5-3----|
|-0-----3-2--------|
 
 En el solo.....
Gtr II            6x
 ~~~~~~~~~~~~~~
|------------------|  <<<<<
                        
                    
Tap to rate this tab
# A B C D E F G H I J K L M N O P Q R S T U V W X Y Z