Song name
# A B C D E F G H I J K L M N O P Q R S T U V W X Y Z

Trapeze - Jury tab

 Jury- Trapeze 
 
 Guitar I- Intro [Finger-picked] Acoustic

|---3-------0-(0)---|---0-------0--(0)---|
|-----5-0-----(5)---|-----0--------(5)---|This is just a brief overview of 
|---------0---------|-------0------------|the acoustic part. It changes  
|-------------------|---------2----------|frequently ,and this is what the 
|-------------------|--------------------|brackets mean.
|-------------------|--------------------|
 

 Riff 1- Overdriven Guitar [Humbucker equipped]
|-----------|---------------|---------------|
|-----------|---------------|---------------|
|-----------|---------------|---------------| .... and so on; refer to the 
|-----9-5---|-----------9-5-|-----------9-3-| track if you don't know what I 
|---2-7-3---|---------2-7-3-|---------2-7-5-| mean.
|---0-0-----|---0-3-2-0-0---|-0-3-2-0-0-0---|


 Riff 2- Overdriven Guitar [Single Coils]
|---------------------|-------------------|
|---------------------|-------------------|
|---------------------|-------------------|Cuts to this riff.
|---7-9-9-9-9-7---7---|-----7-7-7-7-9-----|
|---5s7-7-7-7-5-7-5---|---7-5-5-5-5-7s2---|
|---------------5-----|---5-----------0---|

 Riff 3- Overdriven Guitar [Single Coils]
|-----------------------|---------------------------------------|
|-----------------------|---------------------------------------|
|-----------------------|---------------------------------------|
|-----9----7----9----7--|---------------------------------------|
|-----7----5----7----5--|-----/7-7--5-5-3v------------------7---|
|------0-0--0-0--0-0----|---0----------------0-3p2p0-0-0-0-0----|
                                                      P.M..
Riff 3 alternates with riff 2, use track for this ,or any other, timing 
queries.

Haven't figured out the solo quite yet, but it's just E Minor Pentatonic if you wanna jam.

2011 J O'Baoigheallain

http://www.myspace.com/trapezetheband
Tap to rate this tab
 
# A B C D E F G H I J K L M N O P Q R S T U V W X Y Z