Guitaretab - guitar tabs
Song name
# A B C D E F G H I J K L M N O P Q R S T U V W X Y Z

Treble Charger - Funny tab

Artist: Treble Charger
Song: Funny
Album: Wide Awake Bored

transcribed by Andrew Afan (atamize@hotmail.com)

Chords used:

    C#m	  A    E   F#m   B   D
e|------------------2-----------|
B|--5---------------2-----------|
G|--6-----2----1----2----4---7--|
D|--6-----2----2----4----4---7--|
A|--4-----0----2----4----2---5--|
E|-------------0----2-----------|

Intro/Verse:

Guitar 1:
    C#m		  	 A
e|---------------------------------------------|
B|--------0------------------------------------|
G|-----------2----1-------------1--2----1------|
D|-----2-------------2-------2-------------2---|
A|--4---------------------0--------------------|
E|---------------------------------------------|

    E		      	  F#m
e|--------------------------------------------|
B|--------------------------------------------|
G|--------1--2----1------------1--2----1------|
D|-----2-------------2------2-------------2---|
A|--------------------------------------------|
E|--0---------------------2-------------------|

Guitar 2 (Second time through intro):

e|--------------------------------------------------------|
B|-------5---7---------5---7----9---------9---7----9------|
G|--6-------------4------------------9----------------9---|
D|--------------------------------------------------------|
A|--------------------------------------------------------|
E|--------------------------------------------------------|

Prechorus (Picking):

	     A			E
It's not the time you picked to tell me

	      F#m	       A
It's more the way you want to show me

	      E		      F#m		A
And now it's time to save the past you know so well

Chorus (Strumming):

C#m       A		    E		   F#m
It's not funny, we're not laughing like we did before

C#m       A		    E		   F#m
It's not funny, it's just hurting more and more

Solo:
[ Tab from: http://www.guitaretab.com/t/treble-charger/129308.html ]
Riff A:			  C#m			A
e|-------------12----11------------------------------|
B|-------12----------------12------------------------|
G|--/13-----13----13-------------13b14r13--11--9-9---|
D|---------------------------------------------------|
A|---------------------------------------------------|
E|---------------------------------------------------|

			  E		     F#m
e|---------------------------------------------------|
B|---------------------------------------------------|
G|-------9h11p9----9--------------------------9------|
D|--9h11--------11----11--9--------------------------|
A|----------------------------11b12r11--9--7---------|
E|---------------------------------------------------|

		  C#m		     A
e|----------------------------------------12---------|
B|-------12-------------12b13r12--9--9b10---10r9-----|
G|--12b13--13r12---9---------------------------------|
D|---------------------------------------------------|
A|---------------------------------------------------|
E|---------------------------------------------------|

		     E			F#m
e|-----------------------------------------------------|
B|-----------------------------------------------------|
G|--9h11p9----9-------------------9----11b12--11b12r11-|
D|---------11----11--9----------9---9------------------|
A|-----------------------11h12-------------------------|
E|-----------------------------------------------------|

		A
e|-------------------------------------------------------------|
B|--------------------------14h16--14h16--14h16--14h16---------|
G|--9h11p9----9--9~------16------16-----16-----16-----16--16~--|
D|---------11--------------------------------------------------|
A|-------------------------------------------------------------|
E|-------------------------------------------------------------|

Bridge:

B	     C#m		    A
Say what you want we know that it's true (All brand new)

B	     C#m		D		      A
Yesterday's over now seems it's all brand new and we never

	   B
heard it before
Related for Funny tab
Advertisement will be closed in 10 seconds