Song name
# A B C D E F G H I J K L M N O P Q R S T U V W X Y Z

Treble Charger - Red chords

Highlighted       Show chord diagrams
Treble Charger
Red
Maybe It's Me
1997
Submitted by: paramore_fans@yahoo.com

Key: G

Tuning: Standard EADGBe

Chords used:
G -  320033
D -  xx0232
Em - 022000
Am - x02210
C -  x32010


Intro: 
          G                  D                  Am
e|-----------------|-----------0------|-------------------|
B|-----------3-----|-----3-------3----|-----1-------0h2---|
G|-----0-------0---|---2---2-------2--|-------2---------2-|
D|---0---0-------0-|-0-------0--------|---2-------2-------|
A|-----------------|------------------|-0-------0---------|
E|-3-------3-------|------------------|-------------------|


Verse 1:
G                         D
  I saw you looking for a light
             Am
Face painted cigarette white
G
  You asked the cleanest 
        D
boy you found
You couldn't see me 
Am
turned around
C
  His fingers stretched 
            G     D
across your empty gaze
Am                       C
  But I just can't escape


Chorus:
       G
As the red fades from 
your wrinkled dress
  C
A picture of the 
people you've impressed
Em
  Hangs on a wall around here
C
Vision starts to 
crawl when I'm near
G
  And the evening waits
      C
While you get caught 
up to your own mistakes
Em
  Made up of different lines
  C
I wouldn't want to keep in my mind


Guitar Solo 1: G--C--Em--C-- x2

Guitar 2: Solo
      G             C                  Em                        C
e|-3--5--7-|-0--0-0-0-------|------------------------|------------------------|
B|---------|----------3-1-0-|-0h1-1--1--1-0----------|-0h1-1--1--1-0----------|
G|---------|----------------|----------------2--0--0-|----------------2--0--0-|
D|---------|----------------|------------------------|------------------------|
A|---------|----------------|------------------------|------------------------|
E|---------|----------------|------------------------|------------------------|

      G             C                  Em                        C
e|-3--5--7-|-0--0-0-0-------|-------------------0----|-------------------0----|
B|---------|----------3-1-0-|-0h1-1--1--1-3--3-----3-|-0h1-1--1--1-3--3-----3-|
G|---------|----------------|------------------------|------------------------|
D|---------|----------------|------------------------|------------------------|
A|---------|----------------|------------------------|------------------------|
E|---------|----------------|------------------------|------------------------|


Verse 2:
G
  I wondered why you'd come around
D                  Am
  Remembering your little girl frown
G
  Your answers kept the crowd at bay
D                  Am
  With compliments unwilling to pay
C
  I have some things 
            G      D
I'd like to say to you
Am                           C
  But they just can't be true


(Repeat Chorus)


Guitar Solo 2: G--D--Am--C--G-D-Am--C--

Guitar 2: Solo
            G                      D                   Am                     C
e|-----------0-----------|-5-5--5-5-5-3-5--5-|-7------------------|-7--7--8-7------------|
B|-0--3--0-3---3-1--0--3-|-------------------|----10-8-7-8----8---|------------10-8------|
G|-----------------------|-------------------|--------------7---7-|------------------7-7-|
D|-----------------------|-------------------|--------------------|----------------------|
A|-----------------------|-------------------|--------------------|----------------------|
E|-----------------------|-------------------|--------------------|----------------------|

         G           D            Am               C
e|--------------|----------|---3-----5--3-|------3--3------|
B|-8h10p8-7h8p7-|----------|------3-------|---3--------3-0-|
G|--------------|-7--------|--------------|----------------|
D|--------------|----5-5-5-|--------------|----------------|
A|--------------|----------|--------------|----------------|
E|--------------|----------|--------------|----------------|


(Repeat Chorus)
(Repeat Guitar Solo 1)


Outro:

Guitar Solo 3: G--C--Em--C-- x2, Em(hold)

Guitar 2: Solo
      G             C                  Em                        C
e|-3--5--7-|-0--0-0-0-------|------------------------|------------------------|
B|---------|----------3-1-0-|-0h1-1--1--1-0----------|-0h1-1--1--1-0----------|
G|---------|----------------|----------------2--0--0-|----------------2--0--0-|
D|---------|----------------|------------------------|------------------------|
A|---------|----------------|------------------------|------------------------|
E|---------|----------------|------------------------|------------------------|

      G             C                    Em                        C
e|-3--5--7-|-7---------------|-7--10--7---------------|-7--10--7-----------------|
B|---------|----10-8-7-8--10-|-----------10-8-7-8--10-|-----------10-8-7-8--10\8-|
G|---------|-----------------|------------------------|--------------------------|
D|---------|-----------------|------------------------|--------------------------|
A|---------|-----------------|------------------------|--------------------------|
E|---------|-----------------|------------------------|--------------------------|

   Em
e|----|
B|-7--|
G|----|
D|----|
A|----|
E|----|
Tap to rate this tab
# A B C D E F G H I J K L M N O P Q R S T U V W X Y Z