Song name
# A B C D E F G H I J K L M N O P Q R S T U V W X Y Z

Tribal Seeds - In Your Eyes tab

In Your Eyes
Tribal Seeds
Soundwaves - EP

Standard Tuning

Pattern used throughout song:
|--6---6---6---6---4---4---4---4---| 
|--6---6---7---7---4---4---6---6---|                                                    
|--6---6---8---8---5---5---6---5---|      
|--8---8---8---8---6---6---6---6---|  it also sounds fine to just play the C# twice
|--8---8---6---6---6---6---4---3---|
|--6---6-----------4---4-----------|


Intro (Bass):
|------------------------------------------------------|
|------------------------------------------------------|
|------------------------------------------------------|
|------------------------------------------------------|
|----------------8-6-6-6-----6----------4-4-4--3-3-3---|
|--6-6-6-4-6-------------------4-4-4-------------------|


Chorus:
|----------6-4-------4h6p4------------|
|--4/6---------6-4---------4h6p4------|  
|-------------------------------------|    (x2)
|-------------------------------------|
|-------------------------------------|
|-------------------------------------|


|-------6---13-11-------------------------------------11h13p11---8h9p8--|
|--4/6----9----------9h11p9-----------9--9/11---------------------------|
|---------------------------10-8---10-----------------------------------|
|--------------------------------10-------------------------------------|
|-----------------------------------------------------------------------|
|-----------------------------------------------------------------------|



That's all I have for now, let me know how it is and if people want then maybe I can finish it!
Beautiful song for a beautiful girl

Peace!
Tap to rate this tab
# A B C D E F G H I J K L M N O P Q R S T U V W X Y Z