Song name
# A B C D E F G H I J K L M N O P Q R S T U V W X Y Z

Tribal Seeds - All I Know tab

All I Know
Tribal Seeds
The Harvest

tuning: standard
Intro & Verse
|--10-10----8---8---6-6---6-6---|
|--11-11---10--10---8-8---8-8---|
|-------------------------------|
|-------------------------------|
|-------------------------------|
|-------------------------------|

guitar 2
|-------------------------------|
|-------------------------------|
|-------------------------------|
|--8-8-----7--7----5-5---5-5----|
|-------------------------------|
|-------------------------------|
repeats the same until

"...when you're feeling high"
guitar 2
|----------------------------------------------------------------------|
|----------------------------------------------------------------------|
|--------------------------7----------------------101010--8-7----------|
|--8-8---7-7----5--555--8-------8-8----7-7----5---------------10-8-7---|
|----------------------------------------------------------------------|
|----------------------------------------------------------------------|

"All I know"
|--10-10-10---8-8-8----6-6-6----6-6-6----|
|--11-11-11---101010---8-8-8----8-8-8----|
|----------------------------------------|
|----------------------------------------|
|----------------------------------------|
|----------------------------------------|
Guitar 2
|----------------------------------------|
|----------------------------------------|
|----------------------------10-10-10----|
|--8-8-8-7-7-7-7-8-8-8-8-8-8-------------|
|----------------------------------------|
|----------------------------------------|

 I'll figure out the solo if this tab gets enough views/if anyone asks for it.
Peace
Tap to rate this tab
# A B C D E F G H I J K L M N O P Q R S T U V W X Y Z