Song name
# A B C D E F G H I J K L M N O P Q R S T U V W X Y Z

Tristan Prettyman - Say Anything tab

Song:    Say Anything
Artist:  Tristan Prettyman
Album:   Cedar + Gold
Video:   http://www.youtube.com/watch?v=KNzZ79hdMO8 (Song starts at 0:30)
Author:  Marianne V. (mariannemvelasco@gmail.com)


The fingerpicking rhythm takes a little getting used to with the repeating bass note, 
but listen to the song to get the hang of it.  The annotations above the tab indicate the 
basic finger placement for each section.


CAPO 1                                                                CHORD SHAPES
                                                                      ------------
                                                                      *     302000
INTRO                                                                 ^     300200
-----                                                                 Em    022000
                                                                      C     x32010
    *               ^                 Em                              G     320033
e|---------------|-----------------|-------0-------------------|      D     xx0232
B|---------------|-----------0-----|-----------0---------------|      Am    x02210
G|-------0-------|--2h4--4------0--|--------------------0------|      Dadd  x54030
D|-----2------0--|-----------------|-----2-----------2------2--|
A|---------------|-----------------|---------------------------|
E|--3------3-----|--3------3-------|--0------0----0-------0----| x2


VERSE 1
-------

    *               ^                 Em
e|---------------|-----------------|--------------------------|
B|---------------|-----------0-----|--------------------------|
G|-------0-------|--2h4--4------0--|-------0-----------0------|
D|-----2------0--|-----------------|-----2-----2-----2-----2--|
A|---------------|-----------------|--------------------------|
E|--3------3-----|--3------3-------|--0------0----0------0----| x2

       If I could say anything, anything, what would it be?
       Good question for our destined reality

    C
e|--------------------------------------------------------|------|
B|------1-------------------------------------------------|------|
G|----0---------------0-------------0-------------0-------|------|
D|-----------0--(h2)2------0--(h2)2------0--(h2)2------0--|-- <--|Ghost note:  Emphasize
A|--3-----3----3--------3----3--------3----3--------3-----|------|    hammer on the fretboard
E|--------------------------------------------------------|------|    before plucking

    G
e|-------3---------------------3----------------|
B|-----------3-----3-----3---------3-----3------|
G|-----0---------0-----------0---------0-----0--|
D|----------------------------------------------|
A|-------------------2h3------------------------|
E|--3------3---3-----------3-----3---3-----3----| x2

       I would tell you that I love you
       Even if it didnít show
       Oh, I would tell you that I love you, baby
       By now I hope you know


VERSE 2
-------

      If you could go anywhere, anywhere, what would you see?
      Take a step in any direction, itís make-believe
      If your mind is always moving
      Itís hard to get your heart up off the ground
      Oh yeah, your mind was always moving
      Well your thoughts never made a sound


CHORUS
------

    C                            G                       Em
e|----------------------------|-----------------------|-----------------------|--|
B|------1---------------------|------3---------3------|------0---------0------|--|
G|----0---------------0-------|----0-----0---0-----0--|----0-----0---0-----0--|--|
D|-----------0--(h2)2------0--|-----------------------|-----------------------|--|
A|--3-----3----3--------3-----|-----------------------|-----------------------|--|
E|----------------------------|--3-----3---3-----3----|--0-----0---0-----0----|--|

    D                        C                            G
e|------2-----------------|----------------------------|-----------------------|--|
B|----------3------3------|------1---------------------|------3---------3------|--|
G|----2----------2-----0--|----0---------------0-------|----0-----0---0-----0--|--|
D|--0-----0---0------0----|-----------0--(h2)2------0--|-----------------------|--|
A|------------------------|--3-----3----3--------3-----|-----------------------|--|
E|------------------------|----------------------------|--3-----3---2-----2----|--|

    Am                      C           Dadd
e|-----------------------|-------------|-----|
B|------1----------------|------1------|-----|
G|----2-----2-----2------|----0-----0--|-----|
D|--------------2-----2--|-------------|-----|
A|--0-----0---0-----0----|--3-----3----|--5--|
E|-----------------------|-------------|-----|

      And we wonít break if we let go
      Cause you and I already know
      We were bound to be set free eventually
      Well, here we are now
      You can say anything

[RESUME INTRO]


VERSE 3
-------

      If I could have it go any way, any way, itíd go like this
      Take it back to a couple years yesterday to our first kiss
      In that moment I loved you
      This isnít how I ever saw it going down
      Oh, in that moment I loved you
      I wish I knew then what I know now


CHORUS
------

      And we wonít break if we let go
      Cause you and I already know
      We were bound to be set free eventually
      Well here we are now
      You can say anything

[CONTINUE CHORUS (C/G/Em/D only)]
      You can say anything


BRIDGE
------

[SAME AS CHORUS (C/G/Em/D only) x2]
      Oh, you should listen to your heart
      Itís gonna tell you what you need
      And take care of yourself
      And donít you worry about me

      Oh, you should listen to your hea-ea-eart
      Itís gonna tell you what you need
      To take care of yourself
      And donít you worry about me


CHORUS
------

      And we wonít break if we let go
      Cause you and I already know
      We were bound to be set free eventually
      Well, here we are now
      You can say anything

[RESUME INTRO]
      You can say anything
      You can say anything

                           End on e|-----|
                                  B|-----|
                                  G|-----|
                                  D|-----|
                                  A|-----|
                                  E|--0--|
Tap to rate this tab
# A B C D E F G H I J K L M N O P Q R S T U V W X Y Z