Guitaretab - guitar tabs
Song name
# A B C D E F G H I J K L M N O P Q R S T U V W X Y Z

Trivium - End Of Everything tab

This is pretty easy.. took me like 2 minutes to figure it out...


                                                                  x1
e|-----------------------------------------------------------------|
B|-----------------------------------------------------------------|
G|-----------------------------------------------------------------|
D|-----------------------------------------------------------------|
A|----3---3---3---3---2---2---2---2---3---3---3---3---2---2---2---2|
D|--0---0---0---0---0---0---0---0---0---0---0---0---0---0---0---0--|
[ Tab from: http://www.guitaretab.com/t/trivium/137037.html ]
                                                                    x2
e|-------------------------------------------------------------------|
B|-------------------------------------------------------------------|
G|-------------------------------------------------------------------|
D|-------------------------------------------------------------------|
A|----3---3---3---3---1---1---1---1---3---3---3---3---1---1---1---1--|
E|--2---2---2---2---2---2---2---2---2---2---2---2---2---2---2---2---2|  
Alternate between these two thru the song                                 x4
                                                                     x2
e|--------------------------------------------------------------------|
B|--------------------------------------------------------------------|
G|--------------------------------------------------------------------|
D|--------------------------------------------------------------------|
A|----1---1---1---1---0---0---0---0---1---1---1---1---0---0---0---0---|
E|--3---3---3---3---3---3---3---3---3---3---3---3---3---3---3---3---3-|


its simple 

coments and questions are always welcome so e-mail me at dethcab4u@yahoo.com
Related for End Of Everything tab
×
End Of Everything