Song name
# A B C D E F G H I J K L M N O P Q R S T U V W X Y Z

Trower Robin - Shame The Devil tab

Tabbed by James Frid ,any comments mail'em to frid1969@hotmail.com

This is from memory,so might be a few mistakes, but its all u need to work
out the songs structure.It might take a few listens to work out the wah wah
part. no solo as yet, just improvise in [B]blues scale easy!

{Guitar tuned to Eb on record.}

Intro:(With Wah-Wah)
Eb-------------------------|-|--------------------------------------|
Bb---x-7s------------------|-|--------------------------------------|
Gb---x-7s---7-9h-7-9p-7-9h-|-|---------------------7-9h-7-9p-7-9h---|
Db---x-7s------------------|-|----------------7-9-------------------|
Ab-------------------------|-|-7-------5-7s-9-----------------------|
Eb---7----7----------------|-|---5-6-7------------------------------|
     Bm                        
    (Repeat 3 times)              



 ||----------------------------------------------------||
 ||x-7s-----------------------------------s5-s3-s5-s3--||
 ||x-7s--7-9h-7-9p-7-9h----------------1--s4-s2-s4-s2--||
 ||x-7s---------------------s7-5-7b-5--2---------------||
 ||------------------------------------2---------------||
 ||7---7----------------3-3------------0---------------||
  Bm                   G              E    
    (verse chords)



 ||----7---------------------------------------------
 ||----7----------------------------------------------
 ||----7----9-------------10-------------7-------------
 ||---------8-7h-8----8---9--8h-9----9---6--5h-6---6---
 ||---------9-------9-----10------10-----7-------7-----
 ||--7-----------------------------------0-------------
    Bm     Bm#7           Cm#7            Em#7
    

 |------------------------||
 |------------------------||
 |--------------------7b--||
 |------------------7-----||
 |-7---------5-7-s9-------||
 |---3-4-5-7--------------||
    (Chorus chords)


'Shame the devil'(Trower) from 'For Earth Below' album 1975.
Tap to rate this tab
# A B C D E F G H I J K L M N O P Q R S T U V W X Y Z