Song name
# A B C D E F G H I J K L M N O P Q R S T U V W X Y Z

Troy Stetina - Open Fire tab

----------------------------------------|
----------------------------------------|
---------5---5----7--5---7--5-----------|
-----5s7---------------7----------------|
----------------------------------------|
----------------------------------------|


----------------------------------------|
----------------------------------------|
----------------------5-----------------|
-----7---5---7------5---7---------------|
----------------5h7---------------------|
Tap to rate this tab
# A B C D E F G H I J K L M N O P Q R S T U V W X Y Z