Troy Stetina - To The Stage tab

my first tab
to correct please write: alxler@yandex.com

Tuning: Standart
fb: full bend
h: hammer on
p: pull off
Hb: hold bend
/: slide
x: death note


E|------------|---------------|----------------------------------------|
B|18Fb--------|18Fb------15-18|15h18p15--15h18p15--15h18p15--15h18p15--|
G|------------|---------------|--------17--------17--------17--------17|
D|------------|---------------|----------------------------------------|
A|------------|---------------|----------------------------------------|
E|------------|---------------|----------------------------------------|


|-------------18|----------------|-----------------18--|-----3-----3-----3-|
|15------18-----|----------------|---------------------|----3-----3-----3--|
|--17FbHb-------|3--3------------|5Fb--3-5-3-----3-----|5Fb---5Fb---5Fb----|
|---------------|-------5--------|-----------5-3-------|-------------------|
|---------------|----------------|---------------------|-------------------|
|---------------|----------------|---------------------|-------------------|


-----3|---------------------|----------------------|----------------------|
----3-|6p3-6p3-6p3-6p3-6----|----------------------|----------------------|
5Fb---|---------------------|----------------------|--------3-----5--3----|
------|---------------------|15h17-17-17-17----17/x|3h5-5-5----5----------|
------|---------------------|----------------------|----------------------|
------|---------------------|----------------------|----------------------|


|----------------------|--------------20Fb---|------------------------|
|----------------------|---------------------|------------------------|
|----------------------|--------3------------|------------------------|
|15h17-17-17-17----15/x|3h5-5-5----5---------|------------------------|
|----------------------|---------------------|------------13h15-15-15-|
|----------------------|---------------------|13h15-15-15-------------|


-----------------------|----------------------------|---------------------|
-----------------------|----------------------------|---------------------|
-----------------------|-----------------------15---|---------------------|
-----------------------|-----------15h17-17-17------|-----15h17-----15h17-|
------------13h15-15-15|15h17-17-17-----------------|15h17-----15h17------|
13h15-15-15------------|----------------------------|---------------------|


----------------------|15h18p15--15h18p15--18p15-----18FbHb|
-----------------15h18|--------18--------18-----18p15------|
-15h17-----15h17------|------------------------------------|
------15h17-----------|------------------------------------|
----------------------|------------------------------------|
----------------------|------------------------------------|

Hope you'll enjoy it :D
Tap to rate this tab
 
# A B C D E F G H I J K L M N O P Q R S T U V W X Y Z