Guitaretab - guitar tabs
Song name
# A B C D E F G H I J K L M N O P Q R S T U V W X Y Z

Trustcompany - Slipping Away tab

Band- Trust Company
Song- Slipping Away

Tuning:  Step Down, Drop D


Intro & 1st Part of Verse (slight distortion)
Eb|-----------------|    |-----------------|
Bb|-----------------|    |-----------------|
Gb|-----------------|    |-----------------|
Db|---5*----7*------| x3 |------5*---------|
Ab|------5*---------|    |---3*----5*------|
Db|------------5*---|    |------------5*---|

Chorus (heavy distortion)
Eb|-----------------------------------------------|
Bb|-----------------------------------------------|
Gb|---10-10-10-10-10-10-10-10-10-10-10-10-10-10---|
Db|----x--x--x--x--x--x--x--x--x--x--x--x--x--x---|
Ab|----8--8--8--8--8--8--8--8--8--8--8--8--8--8---|
Db|-----------------------------------------------|
[ Tab from: http://www.guitaretab.com/t/trustcompany/134632.html ]
Chorus (continued)
Eb|---------------------------------------|
Bb|---------------------------------------|
Gb|---------------------------------------|
Db|---10-9h10-9--3~-3-3:-x-3~-3-3:-x-3~---|
Ab|--------------3~-3-3:-x-3~-3-3:-x-3~---|
Db|--------------3~-3-3:-x-3~-3-3:-x-3~---|

Chorus (continued)
Eb|------------------------------|
Bb|------------------------------|
Gb|---5~-5-5-5/9~-10-10-10/12~---|
Db|---x--x-x-x-x---x--x--x--x----|
Ab|---3~-3-3-3/7~--8--8--8/10~---|
Db|------------------------------|

Play 1st Part of Verse x2

2nd Part of Verse x2
Eb|---------------------------------------|
Bb|---------------------------------------|
Gb|------9*-----------------9*-------9*---|
Db|---9*----9*----9*-----9*----9*---------|
Ab|------------9*-----------------9*------|
Db|---------------------------------------|

Play Chorus

Play 1st Part of Verse x2

Play 2nd Part of Verse x2

Play Chorus x2
Related for Slipping Away tab