Guitaretab - guitar tabs
Song name
# A B C D E F G H I J K L M N O P Q R S T U V W X Y Z

Trustcompany - Someone Like You tab

-----------------------------------------------------------------------------
		     Someone like you - TRUSTcompany
-----------------------------------------------------------------------------
Tabbed by: Senhin
Email: ericflathead.com

Tuning: Standard

Intro/Chorus
                              x3      repeat phrase x2
e|----------------2---22-2-2-------3----|
B|----------------2---22-2-2-------3----|
G|---7-77--7-77---2---22-2-2-------4----|
D|---7-55--7-77---4---44-4-4-------5----|
A|---5-55--5-55---4---44-4-4-------5----|
E|--------------------------------------|
       ..    ..    
[ Tab from: http://www.guitaretab.com/t/trustcompany/155428.html ]
Verse
                  Repeat until chorus
e|-------------------|
B|-------14-15-14----|
G|----14----------14-|
D|-16----------------|
A|-------------------|
E|-------------------|

Chorus
Verse

Bridge

e|----------------------------222222222-22222222----------------------------|
B|----------------------------222222222-22222222----------------------------|
G|-66666666-44444444-77777777-333333333-22222222-66666666-44444444----------|
D|-77777777-55555555-77777777-444444444-44444444-77777777-55555555-55555555-|
A|-77777777-55555555-55555555-444444444-44444444-77777777-55555555-55555555-|
E|-55555555-33333333----------222222222----------55555555-33333333-33333333-|

Chorus
verse

----

| /  slide up
| \  slide down
| h  hammer-on
| p  pull-off
| ~  vibrato
| +  harmonic
| x  dead note
| .. palm mute
=============================================================================

thats it... hope you like ^_^
Related for Someone Like You tab
Advertisement will be closed in 10 seconds