Song name
# A B C D E F G H I J K L M N O P Q R S T U V W X Y Z

Trustcompany - Fear tab

Fear from the album 'The Lonely Position of Neutral'

Intro: 
clean guitar with a little bith of chorus effect

eb|---------0---0h1-0------|---------0---0h1-0------|---------1-----------|
Bb|-----1---------------1--|-----1---------------1--|-----1---------------|
Gb|-------2---2-------2----|-------2---2-------2----|-------2-------------|
Db|--3---------------------|--3---------------------|--3------------------|
Ab|------------------------|------------------------|---------------------|
Db|------------------------|------------------------|---------------------|


Verse:
guitar 1 clean with chorus
eb|---------0----|---------0----|---------0---0h1-0-----|---------0----|
Bb|-----1--------|-----1--------|-----1---------------1-|-----1--------|
Gb|-------2------|--2----2------|-------2---2-------2---|--3----3------|
Db|--3-----------|--------------|--0--------------------|--------------|
Ab|--------------|--------------|-----------------------|--------------|
Db|--------------|--------------|-----------------------|--------------| X2

guitar 2 clean easy strum
eb|--1--1-1-1-1--|--0--0-0-0-0--|--1--1-1-1-1--|-0--0-0-0-0--|
Bb|--1--1-1-1-1--|--1--1-1-1-1--|--3--3-3-3-3--|-3--3-3-3-3--|
Gb|--2--2-2-2-2--|--2--2-2-2-2--|--2--2-2-2-2--|-3--3-3-3-3--|
Db|--3--3-3-3-3--|--2--2-2-2-2--|--0--0-0-0-0--|-3--3-3-3-3--|
Ab|--3--3-3-3-3--|--0--0-0-0-0--|--0--0-0-0-0--|-1--1-1-1-1--|
Db|--------------|--------------|--0--0-0-0-0--|-------------| X2


Chorus:
guitar with distortion
eb|--------------|-------------------|--------------|-------------|
Bb|--------------|-------------------|--------------|-------------|
Gb|--------------|-------------------|--------------|-------------|
Db|-\3--3-3-3-3/-|-/10--10-10-10-10--|--8--8-8-8-8--|-8--8-8-8-8--|
Ab|-\3--3-3-3-3/-|-/10--10-10-10-10--|--8--8-8-8-8--|-8--8-8-8-8--|
Db|-\3--3-3-3-3/-|-/10--10-10-10-10--|--8--8-8-8-8--|-8--8-8-8-8--| X2


then back to verse

then chorus


Bridge:
eb|------------------|-------------------|--------------|-------------|
Bb|------------------|-------------------|--------------|-------------|
Gb|------------------|-------------------|--------------|-------------|
Db|-12--12-12-12-12--|--10--10-10-10-10--|--8--8-8-8-8--|-8--8-8-8-8--|
Ab|-12--12-12-12-12--|--10--10-10-10-10--|--8--8-8-8-8--|-8--8-8-8-8--|
Db|-12--12-12-12-12--|--10--10-10-10-10--|--8--8-8-8-8--|-8--8-8-8-8--| X2

and that little lead guitar thing goes like this i think
eb|------------------|-------------------|--------------|-------------|
Bb|------------------|-------------------|--------------|-------------|
Gb|--2/12h14-14-14---|--12h14-14-14-14b--|-10-10-10-10--|-10-10-10-10-|
Db|------------------|-------------------|--------------|-------------|
Ab|------------------|-------------------|--------------|-------------|
Db|------------------|-------------------|--------------|-------------| X2


then chorus


outro lead guitar bit with chorus chords
eb|------------------------------------------------------------|
Bb|--13~-13~---11-10-11-10-11-10-------------10-12p10-13~------|
Gb|------------------------------10-10h12~---------------------|
Db|------------------------------------------------------------|
Ab|------------------------------------------------------------|
Db|------------------------------------------------------------|

eb|------------------------------------------------------------------------|
Bb|--13~-13~---11-10-11-10-11-10-------------10-12p10-13~---12-12-12-12-10-|
Gb|------------------------------10-10h12~---------------------------------|
Db|------------------------------------------------------------------------|
Ab|------------------------------------------------------------------------|
Db|------------------------------------------------------------------------|

then

eb|---------0------|---------0------|---------0------|---------1------|
Bb|-----1----------|-----1----------|-----1----------|----1-----------|
Gb|-------2--------|-------2--------|-------2--------|-------2--------|
Db|--3-------------|--3-------------|--3-------------|--3-------------|
Ab|----------------|----------------|----------------|----------------|
Db|----------------|----------------|----------------|----------------|

thats it :)
Tap to rate this tab
# A B C D E F G H I J K L M N O P Q R S T U V W X Y Z