Song name
# A B C D E F G H I J K L M N O P Q R S T U V W X Y Z

Trustcompany - Stronger tab

Drop D tuning - (DADGBE)

Intro x4
|---------------|
|---------------|
|------5--------|
|--2-0-5-0-2-0--|
|--2-0-3-0-2-0--|
|--2-0---0-2-0--|

Verse

there's an effects pedal for the verse but i can't make out the guitar, but i wouldnt 
bout it anyway just do the bass bit if ur doin this in a band

Pre-chours
|      x2       |
|---------------|---------------------|
|---------------|---------------------|
|------5--------|--7......------------|
|--2-0-5-0-2-0--|--7......16th notes--|
|--2-0-3-0-2-0--|--5......------------|
|--2-0---0-2-0--|---------------------|

Chours x2
|--------------------------------------------------------------------------|
|--------------------------------------------------------------------------|
|--------------------------------------------------------------------------|
|--2-2-2-2-2-2-2-2-0-0-0-0-0-0-0-0-7-7-7-7-7-7-7-7-10-10-10-10-10-10-10-10-|
|--2-2-2-2-2-2-2-2-0-0-0-0-0-0-0-0-7-7-7-7-7-7-7-7-10-10-10-10-10-10-10-10-|
|--2-2-2-2-2-2-2-2-0-0-0-0-0-0-0-0-7-7-7-7-7-7-7-7-10-10-10-10-10-10-10-10-|

Bridge x2
|--------------------------------------------------------------------------|
|--------------------------------------------------------------------------|
|--------------------------------------------------------------------------|
|--2-2-2-2-2-2-2-2-7-7-7-7-7-7-7-7-10-10-10-10-10-10-10-10-0-0-0-0-0-0-0-0-|
|--2-2-2-2-2-2-2-2-7-7-7-7-7-7-7-7-10-10-10-10-10-10-10-10-0-0-0-0-0-0-0-0-|
|--2-2-2-2-2-2-2-2-7-7-7-7-7-7-7-7-10-10-10-10-10-10-10-10-0-0-0-0-0-0-0-0-|

Thats it! awesome song and easy as
Tap to rate this tab
 
# A B C D E F G H I J K L M N O P Q R S T U V W X Y Z