Song name
# A B C D E F G H I J K L M N O P Q R S T U V W X Y Z

Tsol - Flowers By The Door tab

This is a great song. If you haven't heard it, download it. This is also my first
tab, but i think it's right. If you've got any corrections, email me,
prince_charles_iii@hotmail.com.

Hope this helps.

xx Rob xx

Play this twice (Plus it's scattered throughout the song.)
x|7----------------5-------------7---------------5-------------|
x|--9-----------9----7---------7---9-----------9---7-----------|
x|----9-------9--------7-----7-------9-------9-------7-------7-|
x|------6h7-7------------6-7-----------6h7-7-----------6-7-9---|
x|-------------------------------------------------------------|
x|-------------------------------------------------------------|

Riff 2

x|-------------------------------------------------------------|
x|------9-7-------9-7-5-7-9-7-5--------9-12------9-7-5-7-9-7-5-|
x|----9---------9--------------------9---------9---------------|
x|7-6-------7-6------------------7-6-------7-6-----------------|
x|-------------------------------------------------------------|
x|-------------------------------------------------------------|

That's all right now. The rest is easy palm muted power chord crap and really
hard fancy riffs. Good luck.
Tap to rate this tab
# A B C D E F G H I J K L M N O P Q R S T U V W X Y Z