Guitaretab - guitar tabs
Song name
# A B C D E F G H I J K L M N O P Q R S T U V W X Y Z
Home / T / Tunng / Arms tab

Tunng - Arms tab

Highlighted       Show chord diagrams
Song: Arms
Artist: Seabear
Album: The Ghost That Carried Us Away

This song is one of my favourites from Seabear's beautiful album, "The Ghost That
Us Away". It's pretty simple to play. All you need to really pay attention to is the way the
notes run through the chords. I haven't quite been able to illustrate the strumming 
in the tab but hopefully you'll be able to pick it up by listening to the track.
bass notes are plucked at the beginning and end of every bar, with chord strumming in 
middle.

I've included two versions, one which requires a capo and the other which you can play without.

Capo: 2

Bass Notes
D|2--4|2---|---2|----|
A|----|---2|4---|2---|
E|----|----|----|----|


Chords With Bass Notes
[ Tab from: http://www.guitaretab.com/t/tunng/162451.html ]
      G        D       Bm        A
E|---333--|---222--|---222--|---0000-|
B|---333--|---333--|---333--|---2222-|
G|---000--|---222--|---444--|---2222-|
D|0--000-2|0--000--|---444-0|---2222-|
A|---222--|---000-0|2--222--|0--0000-|
E|---333--|---222--|---222--|--------|


OR: No Capo (this is a bit more of a stretch)

Bass Notes
D|2--4|2---|---2|----|
A|----|---2|4---|2---|
E|----|----|----|----|


Chords With Bass Notes

      A        E       C#m       B
E|---000--|---000--|---444--|---2222-|
B|---222--|---000--|---555--|---4444-|
G|---222--|---111--|---666--|---4444-|
D|2--222-4|2--222--|---666-2|---4444-|
A|---000--|---222-2|4--444--|2--2222-|
E|--------|---000--|---444--|--------|
Related for Arms tab
Advertisement will be closed in 10 seconds