Song name
# A B C D E F G H I J K L M N O P Q R S T U V W X Y Z

Tupac Shakur - Changes tab

intro:
e-5h7-8-8-7----5-5-5h7-------------3----5----3------------------------------|
B---------------8-----8---5-------3----7----5-------------------------------|
G---------------------------7----4----7----5--------------------------------|
D-------------------------------5----7----5---------------------------------|
A------------------------------5----5----3----------------------------------|
E-----------------------------3---------------------------------------------|
verse:
e-8---7---5----------3--3-3--3-3----5--5-5--5-5----3--3-3--3-3---------|
B-8---8---5--8--8----3--3-3--3-3----7--7-7--7-7----5--5-5--5-5---------|
G-9---9---7--9--9----4--4-4--4-4----7--7-7--7-7----5--5-5--5-5---------|
D-10--9---7-10-10----5--5-5--5-5----7--7-7--7-7----5--5-5--5-5---------|
A-----------10-10----5--5-5--5-5----5--5-5--5-5----3--3-3--3-3---------|
E--------------------3--3-3--3-3---------------------------------------|

Chorus:
e----3---0--------------------------------------------------------------|
B---3---1----3----3--3--3-3--3-3--3-3-----------------------------------|
G--0---2----0-----0--0--0-0--0-0--0-0-----------------------------------|
D----------2------2--2--2-2--2-2--2-2-----------------------------------|
A-----------------3--3--3-3--3-3--3-3-----------------------------------|
E-----------------------------------------------------------------------|
Tap to rate this tab
 
# A B C D E F G H I J K L M N O P Q R S T U V W X Y Z