Guitaretab - guitar tabs
Song name
# A B C D E F G H I J K L M N O P Q R S T U V W X Y Z

Tweak - I Hate Myself tab

I Hate Myself
Tweak
Dirty Sanchez and the Misfit Kidz
Tabbed by: Greg and Mike (www.meltdown@webmail.co.za)


Intro
e|--------------|
B|--------------|
G|-5-5-5-5------|
D|-5-5-5-5--7---|
A|-3-3-3-3--7---|
E|----------5---|

Interlude
Guitar 1
e|--------------------3---3-----|
B|------8----8------------------|
G|-5-5----9-----7---5---5---5---|
D|------------------------------|
A|------------------------------|
E|------------------------------|

Guitar 2
e|--------------------------------------|
B|--------------------------------------|
G|-5-5-5-x------------------------------|
D|-5-5-5-x--7-7-7-7--5-5-5-x--3-3-3-3---|
A|-3-3-3-x--7-7-7-7--5-5-5-x--3-3-3-3---|
E|----------5-5-5-5--3-3-3-x--1-1-1-1---|

Verse 1 (Palm mute)
e|-------------------------------------------|
B|-------------------------------------------|
G|-------------------------------------------|
D|-5-5-5-5-5---5-5-5-5-----------------------|
A|-3-3-3-3-3---3-3-3-3-7-7-7-7-7---7-7-7-7---|
E|---------------------5-5-5-5-5---5-5-5-5---|

e|-------------------------------------------|
B|-------------------------------------------|
G|-------------------------------------------|
D|-------------------------------------------|
A|-5-5-5-5-5---5-5-5-5-3-3-3-3-3---3-3-3-3---|
E|-3-3-3-3-3---3-3-3-3-1-1-1-1-1---1-1-1-1---|

Pre Chorus
e|------------------------------|
B|------------------------------|
G|-5-5--------------------------|
D|-5-5--5-5-5-5--7-7--3-3-3-3---|
A|-3-3--5-5-5-5--7-7--3-3-3-3---|
E|------3-3-3-3--5-5--1-1-1-1---|
[ Tab from: http://www.guitaretab.com/t/tweak/122415.html ]
Chorus
e|------------------------------------|
B|------------------------------------|
G|-5-5--------------------------------|
D|-5-5--x-x--7-7---5-5--x-x--5--5-5---|
A|-3-3--x-x--7-7---5-5--x-x--5--5-5---|
E|------x-x--5-5---3-3--x-x--3--3-3---|

e|------------------------------------|
B|------------------------------------|
G|-5-5--------------------------------|
D|-5-5--x-x--7-7---5-5--x-x--3--3-3---|
A|-3-3--x-x--7-7---5-5--x-x--3--3-3---|
E|------x-x--5-5---3-3--x-x--1--1-1---|

Verse 2 (Palm mute)
e|----------------------------------------------------------------------|
B|----------------------------------------------------------------------|
G|----------------------------------------------------------------------|
D|-5-5-5-5-5-5-5-5------------------------------------------------------|
A|-3-3-3-3-3-3-3-3--5-5-5-5-5-5-5-5--3-3-3-3-3-3-3-3--5-5-5-5-5-5-5-5---|
E|------------------3-3-3-3-3-3-3-3--1-1-1-1-1-1-1-1--3-3-3-3-3-3-3-3---|

Bridge
e|-----------------------------------------------------------------------|
B|-----------------------------------------------------------------------|
G|-----------------------------------------------------------------------|
D|-5-5-5-5-5-5-5-5--------------------5-5-5-5-5-5-5-5--------------------|
A|-3-3-3-3-3-3-3-3--5-5-5-5--3-3-3-3--3-3-3-3-3-3-3-3--7-7-7-7-7-7-7-7---|
E|------------------3-3-3-3--1-1-1-1-------------------5-5-5-5-5-5-5-5---|

Outro
Guitar 1
e|--------------------3---3-----|
B|------8----8------------------|
G|-5-5----9-----7---5---5---5---|
D|------------------------------|
A|------------------------------|
E|------------------------------|

Guitar 2
e|--------------------------------------|
B|--------------------------------------|
G|-5-5-5-x------------------------------|
D|-5-5-5-x--7-7-7-7--5-5-5-x--3-3-3-3---|
A|-3-3-3-x--7-7-7-7--5-5-5-x--3-3-3-3---|
E|----------5-5-5-5--3-3-3-x--1-1-1-1---|
Related for I Hate Myself tab
×
I Hate Myself