Song name
# A B C D E F G H I J K L M N O P Q R S T U V W X Y Z

Tweak - House Party tab

Tweak
House Party
Dirty Sanchez and the Misfit Kidz

Standard Tuning

Intro
E|----8----8----10----10----10----12----12----12-|
B|-10---10---10----10----11----11----11----11----|
G|-----------------------------------------------|
D|-----------------------------------------------|
A|-----------------------------------------------|
E|-----------------------------------------------|

Chorus
E|---------------------------------------|
B|---------------------------------------|
G|----------7-7-7-7---------5-5-5--------|
D|-3-3-3-3--7-7-7-7--5-5-5--5-5-5--7-5---|
A|-3-3-3-3--5-5-5-5--5-5-5--3-3-3--7-5---|
E|-1-1-1-1-----------3-3-3---------5-3---|

Verse
Guitar 1
E|----------------------------------------|
B|----------------------------------------|
G|----------------------------------9-----|
D|-12---10----------------7--8--10--------|
A|----------------------------------------|
E|----------------------------------------|

Guitar 2 (Palm mute)
E|---------------------------------------|
B|---------------------------------------|
G|---------------------------------------|
D|----------7-7-7-7---------5-5-5--------|
A|-3-3-3-3--5-5-5-5--5-5-5--3-3-3--7-5---|
E|-1-1-1-1-----------3-3-3---------5-3---|


Pre Chorus
E|--13--10--10----10--8--8----13--10--10----8-------|
B|--13--10--10----11--8--8----13--10--10----8-------|
G|--------------------------------------------------|
D|--------------------------------------------------|
A|--------------------------------------------------|
E|--------------------------------------------------|

Bridge 
Guitar 1
E|--------------------------------------|
B|--------------------------------------|
G|----------------7---------------------|
D|---7---8-----------8--7----7--8-------|
A|--------------------------------------|
E|--------------------------------------|

Guitar 2
E|--------------------------------------|
B|--------------------------------------|
G|--7-7-7-7------------------7--7-7-7---|
D|--7-7-7-7--8-8-8-8--7-7-7--7--7-7-7---|
A|--5-5-5-5--8-8-8-8--7-7-7--5--5-5-5---|
E|-----------6-6-6-6--5-5-5-------------|
Tap to rate this tab
# A B C D E F G H I J K L M N O P Q R S T U V W X Y Z