Song name
# A B C D E F G H I J K L M N O P Q R S T U V W X Y Z

Twelve Gates - The Evil Within tab

e|----------------------------------------------------|
B|----------------------------------------------------|
G|----------------------------------------------------|
D|-5-4-----5-4-----5-4-5-4-5-4-5-4-5-4-5--------------|
A|-7-5-----7-5-----7-5-7-5-7-5-7-5-7-5-7--------------|
E|-----0-0-----0-0-----------------------0-0----------|

e|-----------------------------------------------------------|
B|-----------------------------------------------------------|
G|-----------------------------------------------------------|
D|-5-----------4-----------2-----------1-----2---4-4---------|
A|-7-----------5-----------3-----------2-----3---5-5---------|
E|---0-0-0-0-0---0-0-0-0-0---0-0-0-0-0---0-0---0-----0-0-----|

e|----------------------------------------------------|
B|----------------------------------------------------|
G|----------------------------------------------------|
D|-9-----9--7-----7--5-----5--7/4-------4-------------|
A|-7-7-7-7--5-5-5-5--3-3-3-3--5/2-2-2-2-2-------------|
E|----------------------------------------------------|
G|----------------------------------------------------|

e|---------------------------------------------------------|
B|---------------------------------------------------------|
G|---------------------------------------------------------|
D|-9-----9--7-----7--5-----5--7/4--------------------------|
A|-7-7-7-7--5-5-5-5--3-3-3-3--5/2-2-2-2-2-2-2-2------------|
E|---------------------------------------------------------|

e|------------------------------------------------------------------------|
B|------------------------------------------------------------------------|
G|------------------------------------------------------------------------|
D|-----5-----7--------4--------2--------5-----7---------9---------7-------|
A|---7-----9---9----5---5----3---3----7-----9---9----10---10----9---9-----|
E|-0-----0--------0--------0--------0-----0--------0----------0-----------|

e|--------------------------------------------------------|
B|--------------------------------------------------------|
G|--------------------------------------------------------|
D|-9~-----------------------------------------------------|
A|-7~-----------------------------------------------------|
E|--------------------------------------------------------|
Tap to rate this tab
# A B C D E F G H I J K L M N O P Q R S T U V W X Y Z