Song name
# A B C D E F G H I J K L M N O P Q R S T U V W X Y Z

Twin Atlantic - Time Is The Enemy tab

TIME IS THE ENEMY - TWIN ATLANTIC

This is how I play the solo, I don't know if it's right but I think it sounds good 
enough, enjoy!

Standard Tuning

h = hammer on


ROUGHLY 2:13 - QUIET SOLO.

E|-------------------------------------------|
B|-----------0----0--------------------------|
G|-------------------------0h4h5---0---------|
D|------3--3----3---3------------------------|
A|-------------------------------------------|
E|-------------------------------------------|

E|-------------------------------------------|
B|-----------0----0--------------------------|
G|------0--0----0---0------0h4h5---0---------|
D|-------------------------------------------|
A|-------------------------------------------|
E|-------------------------------------------|

E|-------------------------------------------|
B|------------0----0------------2------------|
G|-------2--2----2---0-----0h4h5-------------|
D|-------------------------------------------|
A|-------------------------------------------|
E|-------------------------------------------|

E|-------------------------------------------|
B|------------2----0-------------------------|
G|-------2--2----2---2-----0h4h5---0---------|
D|-------------------------------------------|
A|-------------------------------------------|
E|-------------------------------------------|


RIFF

E|-------------------------------------------|
B|-----------3-----3------3-----3------------|
G|--------000----00----000----00-------------|
D|-------------------------------------------|
A|-------------------------------------------|
E|-------------------------------------------|

E|-------------------------------------------|
B|-----------3-----3------3-----3------------|
G|--------222----22----222----22-------------|
D|-------------------------------------------|
A|-------------------------------------------|
E|-------------------------------------------|

E|-------------------------------------------|
B|-----------3------3-------3-----3----------|
G|--------444-----44-----444----44-----------|
D|-------------------------------------------|
A|-------------------------------------------|
E|-------------------------------------------|

E|-------------------------------------------|
B|-----------5-----5------7-----7------------|
G|--------444----44----444----44-------------|
D|-------------------------------------------|
A|-------------------------------------------|
E|-------------------------------------------|
Tap to rate this tab
 
# A B C D E F G H I J K L M N O P Q R S T U V W X Y Z