Song name
# A B C D E F G H I J K L M N O P Q R S T U V W X Y Z

Twisted Sister - Beast tab

The Beast by Twisted Sister
(tuned a half step down, Eb Bb F# C# G# Eb)

|-------------------------------|------------------------------------|
|-------------------------------|------------------------------------|
|-------------------------------|------------------------------------|
|-------2-----------2--------2--|-------2-----------2--------5-4---2-|
|-2-----0-----3--2--0--2-----0--|-2-----0-----3--2--0--2-----3-2-5-0-|
|-0--3--------------------3-----|-0--3---------------------------3---|
3 times

Guitar 1
|--------------|
|--------------|
|--------------|
|--------------|
|-5-5-5--5-5-5-|
|-5-5-5--5-5-5-|
about 25 times

Guitar 2
|--------------|
|--------------|
|--------------|
|--------------|
|-5--7-7--5--7-|
|-3--5-5--3--5-|


|---------------------------------------|------------|--------------|
|---------------------------------------|------------|--------------|
|---------------------------------------|------------|--------------|
|-x-4--5--------------------------------|------------|--------------|
|-x-2--3--5--7-7-7--7-7-7--7-7-7--7-7-7-|-x-2------2-|--2-----------|
|---------3--5-5-5--5-5-5--5-5-5--5-5-5-|-x-0--5-3-0-|--0--5-3-2-2--|
|---------3--5-5-5--5-5-5--5-5-5--5-5-5-|------3-1---|-----3-1-0-0--|


Solo (2:25)
|----------------5-------------------------------------------------|
|--------------------------------8---------------------------------|
|-------5--7-7b-----7r--5h7--5h7---5h7---------5-7b-7--5p4--5p4----|
|-5--7----------------------------------7----7--------7---------7--|
|------------------------------------------------------------------|
|------------------------------------------------------------------|

-10b--10b--10--8p7-8p7---8p7---------------------15------12-15-15b-20--15b-|
----------------------10----8--?-------------15b---15b-15------------------|
----------------------------------14-14-17-14------------------------------|
---------------------------------------------------------------------------|
---------------------------------------------------------------------------|
---------------------------------------------------------------------------|
Tap to rate this tab
# A B C D E F G H I J K L M N O P Q R S T U V W X Y Z