Song name
# A B C D E F G H I J K L M N O P Q R S T U V W X Y Z

Twisted Sister - I Am Im Me tab

-----------------------------------------------------------------------------
                                  
                I Am I'm Me - Twisted Sister (GUITAR)
            
-----------------------------------------------------------------------------
Tabbed by: Scotto10

Tuning: standard tuning

=============================================================================

Guitar 1



     W                   H.           Q       W                 
E||-------------------|--------------------|-------------------|
B||-------------------|--------------------|-------------------|
G||--4----------------|--L-----------------|-------------------|
D||--4----------------|--L-----------------|--2----------------|
A||--2----------------|--L-----------------|--2----------------|
E||-------------------|--------------------|--0----------------|


  W                   W                   W                 
-------------------|-------------------|-------------------|
-------------------|-------------------|-------------------|
-------------------|-------------------|-------------------|
--L----------------|--L----------------|--L----------------|
--L----------------|--L----------------|--L----------------|
--L----------------|--L----------------|--L----------------|


  PM PM PM PM PM PM PM PM    PM PM PM PM PM PM PM PM  
  E  E  E  E  E  E  E  E     E  E  E  E  E  E  E  E   
--------------------------|--------------------------|
--------------------------|--------------------------|
--------------------------|--------------------------|
--------------------------|--------------------------|
--------------------------|--------------------------|
--0--0--0--0--0--0--0--0--|--0--0--0--0--0--0--0--0--|


  PM PM PM PM PM PM PM PM    PM PM PM PM PM PM PM PM  
  E  E  E  E  E  E  E  E     E  E  E  E  E  E  E  E   
--------------------------|--------------------------|
--------------------------|--------------------------|
--------------------------|--------------------------|
--------------------------|--------------------------|
--------------------------|--------------------------|
--0--0--0--0--0--0--0--0--|--0--0--0--0--0--0--0--0--|


  PM PM PM PM PM PM PM PM    PM PM PM PM PM PM PM PM  
  E  E  E  E  E  E  E  E     E  E  E  E  E  E  E  E   
--------------------------|--------------------------|
--------------------------|--------------------------|
--------------------------|--------------------------|
--------------------------|--------------------------|
--------------------------|--------------------------|
--0--0--0--0--0--0--0--0--|--0--0--0--0--0--0--0--0--|


  PM PM PM PM PM PM PM PM    PM PM PM PM PM PM PM PM  
  E  E  E  E  E  E  E  E     E  E  E  E  E  E  E  E   
--------------------------|--------------------------|
--------------------------|--------------------------|
--------------------------|--------------------------|
--------------------------|--------------------------|
--------------------------|--------------------------|
--0--0--0--0--0--0--0--0--|--0--0--0--0--0--0--0--0--|


  PM PM PM PM PM PM PM PM    PM PM PM PM PM PM PM PM  
  E  E  E  E  E  E  E  E     E  E  E  E  E  E  E  E   
--------------------------|--------------------------|
--------------------------|--------------------------|
--------------------------|--------------------------|
--------------------------|--------------------------|
--------------------------|--------------------------|
--0--0--0--0--0--0--0--0--|--0--0--0--0--0--0--0--0--|


  PM PM PM PM PM PM PM PM    PM PM PM PM PM PM PM PM  
  E  E  E  E  E  E  E  E     E  E  E  E  E  E  E  E   
--------------------------|--------------------------|
--------------------------|--------------------------|
--------------------------|--------------------------|
--------------------------|--------------------------|
--------------------------|--------------------------|
--0--0--0--0--0--0--0--0--|--0--0--0--0--0--0--0--0--|


  PM PM PM PM PM PM PM PM    PM PM PM PM PM PM PM PM  
  E  E  E  E  E  E  E  E     E  E  E  E  E  E  E  E   
--------------------------|--------------------------|
--------------------------|--------------------------|
--------------------------|--------------------------|
--------------------------|--------------------------|
--------------------------|--------------------------|
--0--0--0--0--0--0--0--0--|--0--0--0--0--0--0--0--0--|


  PM PM PM PM PM PM PM PM    PM PM PM PM PM PM PM PM                        
  E  E  E  E  E  E  E  E     E  E  E  E  E  E  E  E     Q    Q    H         
--------------------------|--------------------------|---------------------|
--------------------------|--------------------------|---------------------|
--------------------------|--------------------------|------------4--------|
--------------------------|--------------------------|--2----2----4--------|
--------------------------|--------------------------|--2----2----2--------|
--0--0--0--0--0--0--0--0--|--0--0--0--0--0--0--0--0--|--0----0-------------|


  Q    Q    H           Q    Q    H           Q    Q    H         
---------------------|---------------------|---------------------|
---------------------|---------------------|---------------------|
--L----4-------------|------------4--------|--L----4-------------|
--L----4----2--------|--L----2----4--------|--L----4----2--------|
--L----2----2--------|--L----2----2--------|--L----2----2--------|
------------0--------|--L----0-------------|------------0--------|


  Q    Q    H           Q    Q    Q.     E     E  E  E  E  E  E  E  E   
---------------------|----------------------|--------------------------|
---------------------|----------------------|--------------------------|
------------4--------|--L----4--------------|--------------------------|
--2----2----4--------|--L----4----2---------|--2--------2--------2-----|
--2----2----2--------|--L----2----2---------|--2--------2--------2-----|
--0----0-------------|------------0---------|--0--------0--------0-----|


  E  E  E  E  H           W                   W                 
-----------------------|-------------------|-------------------|
-----------------------|-------------------|-------------------|
--------------4--------|--L----------------|-------------------|
-----2--------4--------|--L----------------|--2----------------|
-----2--------2--------|--L----------------|--2----------------|
-----0-----------------|-------------------|--0----------------|


                      PM PM PM PM PM PM PM PM    PM PM PM PM PM PM PM PM  
  W                   E  E  E  E  E  E  E  E     E  E  E  E  E  E  E  E   
-------------------|--------------------------|--------------------------|
-------------------|--------------------------|--------------------------|
-------------------|--------------------------|--------------------------|
--L----------------|--------------------------|--------------------------|
--L----------------|--------------------------|--------------------------|
--L----------------|--0--0--0--0--0--0--0--0--|--0--0--0--0--0--0--0--0--|


  PM PM PM PM PM PM PM PM    PM PM PM PM PM PM PM PM  
  E  E  E  E  E  E  E  E     E  E  E  E  E  E  E  E   
--------------------------|--------------------------|
--------------------------|--------------------------|
--------------------------|--------------------------|
--------------------------|--------------------------|
--------------------------|--------------------------|
--0--0--0--0--0--0--0--0--|--0--0--0--0--0--0--0--0--|


  PM PM PM PM PM PM PM PM    PM PM PM PM PM PM PM PM  
  E  E  E  E  E  E  E  E     E  E  E  E  E  E  E  E   
--------------------------|--------------------------|
--------------------------|--------------------------|
--------------------------|--------------------------|
--------------------------|--------------------------|
--------------------------|--------------------------|
--0--0--0--0--0--0--0--0--|--0--0--0--0--0--0--0--0--|


  PM PM PM PM PM PM PM PM    PM PM PM PM PM PM PM PM  
  E  E  E  E  E  E  E  E     E  E  E  E  E  E  E  E   
--------------------------|--------------------------|
--------------------------|--------------------------|
--------------------------|--------------------------|
--------------------------|--------------------------|
--------------------------|--------------------------|
--0--0--0--0--0--0--0--0--|--0--0--0--0--0--0--0--0--|


  PM PM PM PM PM PM PM PM    PM PM PM PM PM PM PM PM  
  E  E  E  E  E  E  E  E     E  E  E  E  E  E  E  E   
--------------------------|--------------------------|
--------------------------|--------------------------|
--------------------------|--------------------------|
--------------------------|--------------------------|
--------------------------|--------------------------|
--0--0--0--0--0--0--0--0--|--0--0--0--0--0--0--0--0--|


  PM PM PM PM PM PM PM PM    PM PM PM PM PM PM PM PM  
  E  E  E  E  E  E  E  E     E  E  E  E  E  E  E  E   
--------------------------|--------------------------|
--------------------------|--------------------------|
--------------------------|--------------------------|
--------------------------|--------------------------|
--------------------------|--------------------------|
--0--0--0--0--0--0--0--0--|--0--0--0--0--0--0--0--0--|


  PM PM PM PM PM PM PM PM    PM PM PM PM PM PM PM PM  
  E  E  E  E  E  E  E  E     E  E  E  E  E  E  E  E   
--------------------------|--------------------------|
--------------------------|--------------------------|
--------------------------|--------------------------|
--------------------------|--------------------------|
--------------------------|--------------------------|
--0--0--0--0--0--0--0--0--|--0--0--0--0--0--0--0--0--|


  PM PM PM PM PM PM PM PM    PM PM PM PM PM PM PM PM                        
  E  E  E  E  E  E  E  E     E  E  E  E  E  E  E  E     Q    Q    H         
--------------------------|--------------------------|---------------------|
--------------------------|--------------------------|---------------------|
--------------------------|--------------------------|------------4--------|
--------------------------|--------------------------|--2----2----4--------|
--------------------------|--------------------------|--2----2----2--------|
--0--0--0--0--0--0--0--0--|--0--0--0--0--0--0--0--0--|--0----0-------------|


  Q    Q    H           Q    Q    H           Q    Q    H         
---------------------|---------------------|---------------------|
---------------------|---------------------|---------------------|
--L----4-------------|------------4--------|--L----4-------------|
--L----4----2--------|--L----2----4--------|--L----4----2--------|
--L----2----2--------|--L----2----2--------|--L----2----2--------|
------------0--------|--L----0-------------|------------0--------|


  Q    Q    H           Q    Q    Q.     E     E  E  E  E  E  E  E  E   
---------------------|----------------------|--------------------------|
---------------------|----------------------|--------------------------|
------------4--------|--L----4--------------|--------------------------|
--2----2----4--------|--L----4----2---------|--2--------2--------2-----|
--2----2----2--------|--L----2----2---------|--2--------2--------2-----|
--0----0-------------|------------0---------|--0--------0--------0-----|


  E  E  E  E  H           W                   H.              W                 
-----------------------|-------------------|---------------|-------------------|
-----------------------|-------------------|---------------|-------------------|
--------------4--------|--L----------------|--L------------|-------------------|
-----2--------4--------|--L----------------|--L------------|-------------------|
-----2--------2--------|--L----------------|--L------------|-------------------|
-----0-----------------|-------------------|---------------|--0----------------|


                      PM PM PM PM PM PM PM PM    PM PM PM PM PM PM PM PM  
  W                   E  E  E  E  E  E  E  E     E  E  E  E  E  E  E  E   
-------------------|--------------------------|--------------------------|
-------------------|--------------------------|--------------------------|
-------------------|--------------------------|--------------------------|
-------------------|--------------------------|--------------------------|
-------------------|--------------------------|--------------------------|
--L----------------|--0--0--0--0--0--0--0--0--|--0--0--0--0--0--0--0--0--|


  PM PM PM PM PM PM PM PM    PM PM PM PM PM PM PM PM                           
  E  E  E  E  E  E  E  E     E  E  E  E  E  E  E  E      Q.       Q.     Q     
--------------------------|--------------------------|------------------------|
--------------------------|--------------------------|------------------------|
--------------------------|--------------------------|--11b------11------9----|
--------------------------|--------------------------|------------------------|
--------------------------|--------------------------|------------------------|
--0--0--0--0--0--0--0--0--|--0--0--0--0--0--0--0--0--|------------------------|


  E   Q.       Q     Q       Q    S  Q     E.   Q     
--------------------------|---------12-----L---11----|
--------------------10----|--9----L------------------|
--L--11b------11----------|--------------------------|
--------------------------|--------------------------|
--------------------------|--------------------------|
--------------------------|--------------------------|


                              choose with fingering you want                   
   E   Q.       H             Q                              Q      H          
---L--12b------12~--------|---------------------------------------------------|
--------------------------|---9-----------------------------12b----12~--------|
--------------------------|--13-----------------------------16b----16---------|
--------------------------|---------------------------------------------------|
--------------------------|---------------------------------------------------|
--------------------------|---------------------------------------------------|


         |----3----|                                        
   Q     E    E    E    H            Q     Q      H         
---------------------------------|-------------------------|
---L----10h--12p--10----9--------|--12----16b----16--------|
---L----14h--16p--14p--13--------|-------------------------|
---------------------------------|-------------------------|
---------------------------------|-------------------------|
---------------------------------|-------------------------|


   S. Q.       T  H            Q     Q      H          
-----16b-------L-16--------|--------------------------|
---L-----------------------|---9----12b----12~--------|
---------------------------|--13----16b----16---------|
---------------------------|--------------------------|
---------------------------|--------------------------|
---------------------------|--------------------------|


         |----3----|                                         
   Q     E    E    E    H           E  E  E  E  E  E  E  E   
---------------------------------|--------------------------|
---L----10h--12p--10----9--------|--------------------------|
---L----14h--16p--14p--13--------|--------------------------|
---------------------------------|--2--------2--------2-----|
---------------------------------|--2--------2--------2-----|
---------------------------------|--0--------0--------0-----|


  E  E  E  E  H           W                   H         
-----------------------|-------------------|-----------|
-----------------------|-------------------|-----------|
--------------4--------|--L----------------|--L--------|
-----2--------4--------|--L----------------|--L--------|
-----2--------2--------|--L----------------|--L--------|
-----0-----------------|-------------------|-----------|


  PM PM PM PM PM PM PM PM    PM PM PM PM PM PM PM PM  
  E  E  E  E  E  E  E  E     E  E  E  E  E  E  E  E   
--------------------------|--------------------------|
--------------------------|--------------------------|
--------------------------|--------------------------|
--------------------------|--------------------------|
--------------------------|--------------------------|
--0--0--0--0--0--0--0--0--|--0--0--0--0--0--0--0--0--|


  PM PM PM PM PM PM PM PM    PM PM PM PM PM PM PM PM  
  E  E  E  E  E  E  E  E     E  E  E  E  E  E  E  E   
--------------------------|--------------------------|
--------------------------|--------------------------|
--------------------------|--------------------------|
--------------------------|--------------------------|
--------------------------|--------------------------|
--0--0--0--0--0--0--0--0--|--0--0--0--0--0--0--0--0--|


  PM PM PM PM PM PM PM PM    PM PM PM PM PM PM PM PM  
  E  E  E  E  E  E  E  E     E  E  E  E  E  E  E  E   
--------------------------|--------------------------|
--------------------------|--------------------------|
--------------------------|--------------------------|
--------------------------|--------------------------|
--------------------------|--------------------------|
--0--0--0--0--0--0--0--0--|--0--0--0--0--0--0--0--0--|


  PM PM PM PM PM PM PM PM    PM PM PM PM PM PM PM PM                        
  E  E  E  E  E  E  E  E     E  E  E  E  E  E  E  E     Q    Q    H         
--------------------------|--------------------------|---------------------|
--------------------------|--------------------------|---------------------|
--------------------------|--------------------------|------------4--------|
--------------------------|--------------------------|--2----2----4--------|
--------------------------|--------------------------|--2----2----2--------|
--0--0--0--0--0--0--0--0--|--0--0--0--0--0--0--0--0--|--0----0-------------|


  Q    Q    H           Q    Q    H           Q    Q    H         
---------------------|---------------------|---------------------|
---------------------|---------------------|---------------------|
--L----4-------------|------------4--------|--L----4-------------|
--L----4----2--------|--L----2----4--------|--L----4----2--------|
--L----2----2--------|--L----2----2--------|--L----2----2--------|
------------0--------|--L----0-------------|------------0--------|


  Q    Q    H           Q    Q    Q.     E     E  E  E  E  E  E  E  E   
---------------------|----------------------|--------------------------|
---------------------|----------------------|--------------------------|
------------4--------|--L----4--------------|--------------------------|
--2----2----4--------|--L----4----2---------|--2--------2--------2-----|
--2----2----2--------|--L----2----2---------|--2--------2--------2-----|
--0----0-------------|------------0---------|--0--------0--------0-----|


  E  E  E  E  H           W                   H           Q    Q    H         
-----------------------|-------------------|-----------|---------------------|
-----------------------|-------------------|-----------|---------------------|
--------------4--------|--L----------------|--L--------|------------4--------|
-----2--------4--------|--L----------------|--L--------|--2----2----4--------|
-----2--------2--------|--L----------------|--L--------|--2----2----2--------|
-----0-----------------|-------------------|-----------|--0----0-------------|


  Q    Q    H           Q    Q    H           Q    Q    H         
---------------------|---------------------|---------------------|
---------------------|---------------------|---------------------|
--L----4-------------|------------4--------|--L----4-------------|
--L----4----2--------|--L----2----4--------|--L----4----2--------|
--L----2----2--------|--L----2----2--------|--L----2----2--------|
------------0--------|--L----0-------------|------------0--------|


  Q    Q    H           Q    Q    H           Q    Q    H         
---------------------|---------------------|---------------------|
---------------------|---------------------|---------------------|
------------4--------|--L----4-------------|------------4--------|
--2----2----4--------|--L----4----2--------|--L----2----4--------|
--2----2----2--------|--L----2----2--------|--L----2----2--------|
--0----0-------------|------------0--------|--L----0-------------|


  Q    Q    H           Q    Q    H           Q    Q    H         
---------------------|---------------------|---------------------|
---------------------|---------------------|---------------------|
--L----4-------------|------------4--------|--L----4-------------|
--L----4----2--------|--2----2----4--------|--L----4----2--------|
--L----2----2--------|--2----2----2--------|--L----2----2--------|
------------0--------|--0----0-------------|------------0--------|


  Q    Q    H           Q    Q    H           Q    Q    H         
---------------------|---------------------|---------------------|
---------------------|---------------------|---------------------|
------------4--------|--L----4-------------|------------4--------|
--L----2----4--------|--L----4----2--------|--2----2----4--------|
--L----2----2--------|--L----2----2--------|--2----2----2--------|
--L----0-------------|------------0--------|--0----0-------------|


  Q    Q    H           Q    Q    H           Q    Q    H         
---------------------|---------------------|---------------------|
---------------------|---------------------|---------------------|
--L----4-------------|------------4--------|--L----4-------------|
--L----4----2--------|--L----2----4--------|--L----4----2--------|
--L----2----2--------|--L----2----2--------|--L----2----2--------|
------------0--------|--L----0-------------|------------0--------|


   choose with fingering you want                   
   Q                              Q      H          
---------------------------------------------------|
---9-----------------------------12b----12~--------|
--13-----------------------------16b----16---------|
---------------------------------------------------|
---------------------------------------------------|
---------------------------------------------------|


         |----3----|                                        
   Q     E    E    E    H            Q     Q      H         
---------------------------------|-------------------------|
---L----10h--12p--10----9--------|--12----16b----16--------|
---L----14h--16p--14p--13--------|-------------------------|
---------------------------------|-------------------------|
---------------------------------|-------------------------|
---------------------------------|-------------------------|


   S. Q.       T  H            Q     Q      H          
-----16b-------L-16--------|--------------------------|
---L-----------------------|---9----12b----12~--------|
---------------------------|--13----16b----16---------|
---------------------------|--------------------------|
---------------------------|--------------------------|
---------------------------|--------------------------|


         |----3----|                                        
   Q     E    E    E    H            Q     Q      H         
---------------------------------|-------------------------|
---L----10h--12p--10----9--------|--12----16b----16--------|
---L----14h--16p--14p--13--------|-------------------------|
---------------------------------|-------------------------|
---------------------------------|-------------------------|
---------------------------------|-------------------------|


   S. Q.       T  H            Q     Q      H          
-----16b-------L-16--------|--------------------------|
---L-----------------------|---9----12b----12~--------|
---------------------------|--13----16b----16---------|
---------------------------|--------------------------|
---------------------------|--------------------------|
---------------------------|--------------------------|


         |----3----|                                        
   Q     E    E    E    H            Q     Q      H         
---------------------------------|-------------------------|
---L----10h--12p--10----9--------|--12----16b----16--------|
---L----14h--16p--14p--13--------|-------------------------|
---------------------------------|-------------------------|
---------------------------------|-------------------------|
---------------------------------|-------------------------|


   S. Q.       T  H            Q     Q      H          
-----16b-------L-16--------|--------------------------|
---L-----------------------|---9----12b----12~--------|
---------------------------|--13----16b----16---------|
---------------------------|--------------------------|
---------------------------|--------------------------|
---------------------------|--------------------------|


         |----3----|                                        
   Q     E    E    E    H            Q     Q      H         
---------------------------------|-------------------------|
---L----10h--12p--10----9--------|--12----16b----16--------|
---L----14h--16p--14p--13--------|-------------------------|
---------------------------------|-------------------------|
---------------------------------|-------------------------|
---------------------------------|-------------------------|


   S. Q.       T  H          
-----16b-------L-16--------||
---L-----------------------||
---------------------------||
---------------------------||
---------------------------||
---------------------------||


=============================================================================

Guitar 2



E||-------|-------|-------|-------|-------|-------|-------|-------|-------|
B||-------|-------|-------|-------|-------|-------|-------|-------|-------|
G||-------|-------|-------|-------|-------|-------|-------|-------|-------|
D||-------|-------|-------|-------|-------|-------|-------|-------|-------|
A||-------|-------|-------|-------|-------|-------|-------|-------|-------|
E||-------|-------|-------|-------|-------|-------|-------|-------|-------|


  W                   W                   Q.     Q.      Q     
-------------------|-------------------|----------------------|
-------------------|-------------------|----------------------|
-------------------|-------------------|----------------------|
-------------------|-------------------|--2------1~------4----|
--2----------------|--L----------------|----------------------|
--0----------------|--L----------------|----------------------|


  E  Q.     Q    Q       Q.      Q.      Q       E  Q.        Q.     E   
----------------------|-----------------------|-------------------------|
----------------------|-----------------------|-------------------------|
----------------------|-----------------------|-------------------------|
--L--2------6----4----|--6b------6~------4----|--L--4pbr------2---------|
----------------------|-----------------------|-------------------------|
----------------------|-----------------------|-------------------------|


  Q.      Q.      Q       E  Q.      Q     Q       Q    S Q    E.  Q     
-----------------------|------------------------|-----------------------|
-----------------------|------------------------|-----------------------|
-----------------------|-------------------6----|---------9----L---8----|
--7b------7~------6----|--L--7b------7~---------|--9----L---------------|
-----------------------|------------------------|-----------------------|
-----------------------|------------------------|-----------------------|


                                                     |---3---|            
  E  Q.      H            Q    Q    H           Q    E   E   E  H         
-----------------------|---------------------|---------------------------|
-----------------------|---------------------|---------------------------|
--L--9b------9~--------|---------------------|---------------------------|
-----------------------|-------7----6--------|--L----4h--6p--4-----------|
-----------------------|--7------------------|------------------7--------|
-----------------------|---------------------|---------------------------|


  Q    Q     H            S. Q.      T H           Q    Q    H         
-----------------------|------------------------|---------------------|
-----------------------|------------------------|---------------------|
-----------------------|------------------------|---------------------|
-------7b----7~--------|--L--9b------L-9--------|-------7----6--------|
--7--------------------|------------------------|--7------------------|
-----------------------|------------------------|---------------------|


       |---3---|               |---6---|   |---6---|   |---6---|   |---6---|   
  Q    E   E   E  H            E   E   E   E   E   E   E   E   E   E   E   E   
---------------------------|--------------------------------------------------|
---------------------------|----------------------------------------------12--|
---------------------------|----------------------------------11--13--14------|
--L----4h--6p--4-----------|----------------------11--13--14------------------|
------------------7--------|----------11--12--14------------------------------|
---------------------------|--12--14------------------------------------------|


   |---6---|                                                          
   E   E   E   E   E   H            W                    Q     Q      
------------------11--14--------|---L----------------|---L-----L\----|
--14--12------------------------|--------------------|---------------|
----------14--13----------------|--------------------|---------------|
--------------------------------|--------------------|---------------|
--------------------------------|--------------------|---------------|
--------------------------------|--------------------|---------------|


                                          PM PM PM PM PM PM PM PM  
  W                   W                   E  E  E  E  E  E  E  E   
-------------------|-------------------|--------------------------|
-------------------|-------------------|--------------------------|
-------------------|-------------------|--------------------------|
-------------------|-------------------|--------------------------|
--2----------------|--L----------------|--------------------------|
--0----------------|--L----------------|--0--0--0--0--0--0--0--0--|


  PM PM PM PM PM PM PM PM    PM PM PM PM PM PM PM PM  
  E  E  E  E  E  E  E  E     E  E  E  E  E  E  E  E   
--------------------------|--------------------------|
--------------------------|--------------------------|
--------------------------|--------------------------|
--------------------------|--------------------------|
--------------------------|--------------------------|
--0--0--0--0--0--0--0--0--|--0--0--0--0--0--0--0--0--|


  PM PM PM PM PM PM PM PM    PM PM PM PM PM PM PM PM  
  E  E  E  E  E  E  E  E     E  E  E  E  E  E  E  E   
--------------------------|--------------------------|
--------------------------|--------------------------|
--------------------------|--------------------------|
--------------------------|--------------------------|
--------------------------|--------------------------|
--0--0--0--0--0--0--0--0--|--0--0--0--0--0--0--0--0--|


  PM PM PM PM PM PM PM PM                                                  
  E  E  E  E  E  E  E  E                                                   
--------------------------|-------|-------|-------|-------|-------|-------|
--------------------------|-------|-------|-------|-------|-------|-------|
--------------------------|-------|-------|-------|-------|-------|-------|
--------------------------|-------|-------|-------|-------|-------|-------|
--------------------------|-------|-------|-------|-------|-------|-------|
--0--0--0--0--0--0--0--0--|-------|-------|-------|-------|-------|-------|


-------|-------|-------|-------|-------|-------|-------|-------|-------|-------|
-------|-------|-------|-------|-------|-------|-------|-------|-------|-------|
-------|-------|-------|-------|-------|-------|-------|-------|-------|-------|
-------|-------|-------|-------|-------|-------|-------|-------|-------|-------|
-------|-------|-------|-------|-------|-------|-------|-------|-------|-------|
-------|-------|-------|-------|-------|-------|-------|-------|-------|-------|


-------|-------|-------|-------|-------|-------|-------|-------|-------|-------|
-------|-------|-------|-------|-------|-------|-------|-------|-------|-------|
-------|-------|-------|-------|-------|-------|-------|-------|-------|-------|
-------|-------|-------|-------|-------|-------|-------|-------|-------|-------|
-------|-------|-------|-------|-------|-------|-------|-------|-------|-------|
-------|-------|-------|-------|-------|-------|-------|-------|-------|-------|


                             |---3---|                                    
  Q    Q    H           Q    E   E   E  H           Q    Q     H          
---------------------|---------------------------|-----------------------|
---------------------|---------------------------|-----------------------|
---------------------|---------------------------|-----------------------|
-------7----6--------|--L----4h--6p--4-----------|-------7b----7~--------|
--7------------------|------------------7--------|--7--------------------|
---------------------|---------------------------|-----------------------|


                                                      |---3---|            
  S. Q.      T H           Q    Q    H           Q    E   E   E  H         
------------------------|---------------------|---------------------------|
------------------------|---------------------|---------------------------|
------------------------|---------------------|---------------------------|
--L--9b------L-9--------|-------7----6--------|--L----4h--6p--4-----------|
------------------------|--7------------------|------------------7--------|
------------------------|---------------------|---------------------------|


  Q    Q     H            S. Q.      T H           Q    Q    H         
-----------------------|------------------------|---------------------|
-----------------------|------------------------|---------------------|
-----------------------|------------------------|---------------------|
-------7b----7~--------|--L--9b------L-9--------|-------7----6--------|
--7--------------------|------------------------|--7------------------|
-----------------------|------------------------|---------------------|


       |---3---|                                                             
  Q    E   E   E  H           Q    Q     H            S. Q.      T H         
---------------------------|-----------------------|------------------------|
---------------------------|-----------------------|------------------------|
---------------------------|-----------------------|------------------------|
--L----4h--6p--4-----------|-------7b----7~--------|--L--9b------L-9--------|
------------------7--------|--7--------------------|------------------------|
---------------------------|-----------------------|------------------------|


                             |---3---|                                    
  Q    Q    H           Q    E   E   E  H           Q    Q     H          
---------------------|---------------------------|-----------------------|
---------------------|---------------------------|-----------------------|
---------------------|---------------------------|-----------------------|
-------7----6--------|--L----4h--6p--4-----------|-------7b----7~--------|
--7------------------|------------------7--------|--7--------------------|
---------------------|---------------------------|-----------------------|


  S. Q.      T H          
------------------------||
------------------------||
------------------------||
--L--9b------L-9--------||
------------------------||
------------------------||




Duration Legend
---------------
W - whole
H - half
Q - quarter
E - 8th
S - 16th
T - 32nd
X - 64th
. - note dotted
|-n-|  - n-tuplets


Tablature Legend
----------------
L - tied note
x - dead note
g - grace note
(n) - ghost note
> - accentuded note
NH - natural harmonic
AH - artificial harmonic
TH - tapped harmonic
SH - semi harmonic
PH - pitch harmonic
h - hammer on
p - pull off
b - bend
br - bendRelease
pb - preBend
pbr - preBendRelease
brb - bendReleaseBend
\n/ - tremolo bar dip
\n - tremolo bar dive
-/n - tremolo bar Release up
/n\ - tremolo bar inverted dip
/n - tremolo bar return
-\n - tremolo bar Release down
S - shift slide
s - legato slide
/ -  slide into from below or out of upwards
\ -  slide into from above or out of downwards
~ - vibrato
W - wide vibrato
tr - trill
TP - tremolo picking
T - tapping
S - slap
P - pop
< - fade in
^ - brush up
v - brush down


Tap to rate this tab
# A B C D E F G H I J K L M N O P Q R S T U V W X Y Z