Song name
# A B C D E F G H I J K L M N O P Q R S T U V W X Y Z

Twisted Sister - Never Say Never tab

Never Say Never by Twisted Sister
Still Hungry
(standard tuning)
  _________
 / Symbols \______________________________
| h   hammer on      /   slide up         \
| p   pull off       \   slide down       |
| b   bend           *   natural harmonic |
| pb  pre bend       ra  rake             |
| r   release bend   x   dead note        |
| (#) muted note                          |
 *****************************************

Intro
|---------------------------------------------------------------------|
|---------------------------------------------------------------------|
|---------------------------------------------------------------------|
|-----------------7--7--9-(9)(9)(9)(9)--7--7-------5------------7-----|
|-5-(5)(5)(5)(5)--5--5--7-(7)(7)(7)(7)--5--5--5----3----2----2--5--2--|
|-3-(3)(3)(3)(3)------------------------------3---------0----0-----0--|

Verse
|--------------------------------------------------------------------------|
|--------------------------------------------------------------------------|
|--------------------------------------------------------------------------|
|-7--5--4-------------7--5--4----------------7---------------------7-------|
|-5--3--2--5-5-4-2----5--3--2--5-5-4-5-------5----5----5-4-2-------5----2--|
|----------3-3-2-0-------------3-3-2-3------------3----3-2-0------------0--|


Chorus
|---------------------------------------------------------------------|
|---------------------------------------------------------------------|
|---------------------------------------------------------------------|
|-----------------7--7--9-(9)(9)(9)(9)--7--7-------5------------7-----|
|-5-(5)(5)(5)(5)--5--5--7-(7)(7)(7)(7)--5--5--5----3----2----2--5--2--|
|-3-(3)(3)(3)(3)------------------------------3---------0----0-----0--|

Verse

Chorus

Solo Rythm (I got lazy, for the solo rythm part play each power chord 4 times)
|-----------------------------------------------------------------------|
|-----------------------------------------------------------------------|
|-----------------------------------------------------------------------|
|-9----9----9----9----7----9----9----9----9----7------------------------|
|-7----7----7----7----5----7----7----7----7----5----5----5----5----5----|
|---------------------------------------------------3----3----3----3----|

-------------------------------|
-------------------------------|
-------------------------------|
--7----9----9----9----9--------|
--5----7----7----7----7----5---|
---------------------------3---|

Chorus

Verse

Chorus

Chorus

Ending
|-----------|
|-----------|
|-----------|
|--9--7--9--|
|--7--5--7--|
|-----------|
Tap to rate this tab
 
# A B C D E F G H I J K L M N O P Q R S T U V W X Y Z