Song name
# A B C D E F G H I J K L M N O P Q R S T U V W X Y Z

Twisted Sister - Stay Hungry tab

-----------------------------------------------------------------------------
			     Twisted Sister - Stay Hungry
                                  Stay Hungry 1984
-----------------------------------------------------------------------------
When you play TS songs, you should listen to the song first.
That really helps!;-)


Tabbed by:    *KISSINTIME*

Riff. 1
3x
e|--------------(3)---||-----------------------------------------------|
B|--------------(3)---||-----------------------------------------------|
G|--------------------||--------5--------------------------------------|
D|---2--5--7----(5)---||--3--2--5--5--7--------------------------------|
A|---2--5--7----(5)---||--3--2--3--5--7--------------------------------|
E|---0--3--5----(3)---||--1--0-----3--5--------------------------------|

Riff.2
        Are you..
e|---------------------------------------------------------------------|
B|---------------------------------------------------------------------|
G|---------------------------------------------------------------------|
D|--(7)-----7----5----7----5----7----5----7----5-----------------------|
A|--(7)-----7----5----7----5----7----5----7----5-----------------------|
E|--(5)-----5----3----5----3----5----3----5----3-----------------------|

Riff.3  (gtr.2)
e|--------------------------------------------------------------------------|
B|--------------------------------------------------------------------------|
G|--------------------------------------------------------------------------|
D|--------------------------------------------------------------------------|
A|---00----00----00----00----00----00----00---00----00----00----------------|
E|------33----33----33----33----33----33----33---33----33----33....---------|

                                         stay hungry!..
Riff.4
3x                 2x
e|---------------||---------------------------------------------------------|
B|---------------||---------------------------------------------------------|
G|---------------||--4--2---------------------------------------------------|
D|-3--5--7--5--3-||--4--2--5--2---------------------------------------------|
A|-3--5--7--5--3-||--2--0--5--2---------------------------------------------|
E|-1--3--5--3--1-||--------3--0---------------------------------------------|




| /  slide up
| \  slide down
| h  hammer-on
| p  pull-off
| ~  vibrato
| +  harmonic
| x  Mute note
=============================================================================
Tap to rate this tab
# A B C D E F G H I J K L M N O P Q R S T U V W X Y Z