Song name
# A B C D E F G H I J K L M N O P Q R S T U V W X Y Z

Two Door Cinema Club - Someday tab

Two Door Cinema Club-Someday
Standard Tuning

E)-------------------------------------------------------|
B)15(x64)------------------------------------------------|
G)-------------------------------------------------------|
D)-------------------------------------------------------|
A)-------------------------------------------------------|
E)-------------------------------------------------------|

E)---17-15-17--------------------------------------------|
B)------------17-17-17-15-15-15-15b13--------------------|(x2)
G)---------------------------------------14--------------|
D)-------------------------------------------------------|
A)-------------------------------------------------------|
E)-------------------------------------------------------|

E)---------------15---------------------------------------|
B)17-15-17-15-17---15-15/13-15-15-15-15-13-17-17-17-17-15-|
G)--------------------------------------------------------|
D)--------------------------------------------------------|
A)--------------------------------------------------------|
E)--------------------------------------------------------|

E)---17-15-17--------------------------------------------|
B)------------17-17-17-15-15-15-15b13--------------------|(x2)
G)---------------------------------------14--------------|
D)-------------------------------------------------------|
A)-------------------------------------------------------|
E)-------------------------------------------------------|

E)---------------15---------------------------------------|
B)17-15-17-15-17---15-15/13-15-15-15-15-13-17-17-17-17-15-|
G)--------------------------------------------------------|
D)--------------------------------------------------------|
A)--------------------------------------------------------|
E)--------------------------------------------------------|
Tap to rate this tab
# A B C D E F G H I J K L M N O P Q R S T U V W X Y Z