Guitaretab - guitar tabs
Song name
# A B C D E F G H I J K L M N O P Q R S T U V W X Y Z

Ufo - Doctor Doctor tab

----------------------------------------------------------------------------
			     Doctor Doctor - UFO
----------------------------------------------------------------------------

Tabbed By: Kyle M

Intro
e|------------------------------------------------------------------|
B|------------------------------------------------------------------|
G|----0-2-2h3---5-2h3-2--------0-2-2h3---2----4--6-----------------|
D|-3-------------------------3--------------------------------------|
A|------------------------------------------------------------------|
E|------------------------------------------------------------------|

Bridge riff
e|------------------------------------------------------------------|
B|------------------------------------------------------------------|
G|---9b10-rb9b10-----------1012/14-12-----12b14---14rb12--10-------|
D|---------------12---10--------------------------------------------|
A|------------------------------------------------------------------|
E|------------------------------------------------------------------|
[ Tab from: http://www.guitaretab.com/u/ufo/140519.html ]
e|------------------------------------------------------------------|
B|-----------------------12-13-13/15-------------------------------|
G|--10~~~--------108h10--------------------------------------------|
D|---------10h12----------------------------------------------------|
A|------------------------------------------------------------------|
E|------------------------------------------------------------------|

Main Riff/Verse
e|------------------------------------------------------------------|
B|------------------------------------------------------------------|
G|------------------------------------------------------------------|
D|-7-7-7-7-7-7-7\5-5-3-3-3-3-3-3-3-3-----------------5-5-5-5-5-5-5-5|
A|-5-5-5-5-5-5-5\3-31-1-1-1-1-1-1-1-3-3-3-3-3-3-3-3-3-3-3-3-3-3-3-3|
E|-----------------------------------1-1-1-1-1-1-1-1----------------|

e|------------------------------------------------------------------|
B|------------------------------------------------------------------|
G|------------------------------------------------------------------|
D|-7-7-7-7-7-7-7\5-5-3-3-3-3-3-3-3-3-------------------------2-2-2-2|
A|-5-5-5-5-5-5-5\3-31-1-1-1-1-1-1-1-3-3-3-3-3-3-3-3-5-5-5-5-0-0-0-0|
E|-----------------------------------1-1-1-1-1-1-1-1-3-3-3-3--------|

Chorus (X2)
e|------------------------------------------------------------------|
B|------------------------------------------------------------------|
G|------------------------------------------------------------------|
D|-7-7\-3-3-5-5\---------2-2-7-7-7-7-7-7-7-7-7-7-7-7----------------|
A|-5-5\-1-1-3-3\-3-3-5-5-0-05-5-5-5-5-5-5-5-5-5-5-5----------------|
E|---------------1-1-3-3--------------------------------------------|


| /  slide up
| \  slide down
| h  hammer-on
| p  pull-off
| ~  vibrato
| +  harmonic
| x  Mute note

Related for Doctor Doctor tab