Song name
# A B C D E F G H I J K L M N O P Q R S T U V W X Y Z

Ufo - Flying tab

I'm still working on this song if I can figure out the rest i'll post it

Intro Solo

(Repeat 1x after this)
E----------------------------------------------------|
B----------------------------------------------------|
G-----------1------------1-------------1-----1-------|
D----1-3------3---1-3------3---1-3-------3-1---3-----|
A--3------------3------------3-------------------1---|
E----------------------------------------------------|

First Solo

E------------------------------------------------------|
B------------------------------------------------------|
G--3b-3b-3b--1-3-1-----1-3-1---1-3-1---1-3-1-3-1-------|
D--------------------3-------3-------3-----------3-----|
A------------------------------------------------------|
E------------------------------------------------------|
Tap to rate this tab
# A B C D E F G H I J K L M N O P Q R S T U V W X Y Z