Song name
# A B C D E F G H I J K L M N O P Q R S T U V W X Y Z

Ugly Casanova - Hotcha Girls tab

			     Hotcha Girls by Ugly Casanova

Tabbed by:pat glander
Email:thatonehippie@hotmail.com

Tuning:standard

e|---------------|
B|---------------|     X10 i think (listen to the song)
G|------5--------|
D|----3---3------|
A|--5-------5----|
E|---------------|

e|---------------|
B|---------------|     X10
G|------3--------|
D|----1---1------|
A|--3-------3----|
E|---------------|

e|---------------------------|
B|---------------------------|
G|---------------------------|
D|----7---6------------------|
A|------------7---5---5-7-5--|        then slide down to the next part
E|--5---5---5---5---5--------|

e|---------------------------|
B|---------------------------|
G|---------------------------|
D|----5---4------------------|
A|------------5---3---3-5-3--|
E|--3---3---3---3---3--------|

i know this isnt exactly how its played by all means but i think it sounds pretty nice. 
sharpen your teeth is a great album!
Tap to rate this tab
# A B C D E F G H I J K L M N O P Q R S T U V W X Y Z