Underoath - Wrapped Around Your Finger tab

#----------------------------------PLEASE NOTE---------------------------------#
#This file is the author's own work and represents their interpretation of the #
#song. You may only use this file for private study, scholarship, or research. #
#------------------------------------------------------------------------------#
WRAPPED AROUND YOUR FINGER (THE POLICE COVER)
As recorded by underĜATH
(From the 2005 Album POLICIA! A TRIBUTE TO THE POLICE)
Transcribed by natuMz	Words by Sting Music by underĜATH

A57 7 7 x x x	F53 3 3 x x x	G55 5 5 x x x	Am/Ex x 2 2 1 0
Ex 7 x 9 x x	Cx 3 x 5 x x	Fx 8 x 10 x x	

Gtr I (D A D G B E) - 'Untitled'
Gtr II (D A D G B E) - 'Untitled'
Gtr III (D A D G B E) - 'Untitled'
Gtr IV (D A D G B E) - 'Untitled'
 Pre-Verse
  Fast Post-Hardcore Q=155
           A5                          G5
 4/4
  Gtr I
  E E E    Q   E E Q   E E   Q   E E Q   E E
|-------||-----------------|-----------------|
|-------||---------8-------|---------5-------|
|-4h5---||-----5-------5---|-----2-------2---|
|-----5-||-7-----7-------7-|-5-----5-------5-|
|-------||-----------------|-----------------|
|-------||-----------------|-----------------|
|
| Gtr II
| Q.       E E E E E E E E   E E E E E E E E
|-------||-----------------|-----------------|
|-------||-----------------|-----------------|
|-------||-----------------|-----------------|
|-------||-7-7-7-7-7-7-7-7-|-7-7-7-7-7-5-5-5-|
|-------||-7-7-7-7-7-7-7-7-|-7-7-7-7-7-5-5-5-|
|-------||-7-7-7-7-7-7-7-7-|-7-7-7-7-7-5-5-5-|


  A5                          G5    F5
  Q     E E Q   E E   Q   E E Q   E E
|-------------------|------------------|
|-----------8-------|---------5--------|
|-------5-------5---|-----2-------2----|
|-7-------7-------7-|-5-----5-------5--|
|-------------------|------------------|
|-------------------|------------------|
|
| E +E  E E E E E E   E E E E E E E E
|-------------------|------------------|
|-------------------|------------------|
|-------------------|------------------|
|-7-(7)-7-7-7-7-7-7-|-7-7-7-7-5-5-5-3--|
|-7-(7)-7-7-7-7-7-7-|-7-7-7-7-5-5-5-3--|
|-7-(7)-7-7-7-7-7-7-|-7-7-7-7-5-5-5-3--|


                                G5      F5                            G5
   Q  E E Q   E   E   Q E E Q   E   E   Q  E  E Q   E   E   Q E E Q   E   E
|-------------------|-----------------|-------------------|-----------------|
|---------8---------|-------5---------|---------8---------|-------5---------|
|-----5-------5-----|---2-------2-----|----5--------5-----|---2-------2-----|
|--7----7---------7-|-5---5---------5-|-7-----7---------7-|-5---5---------5-|
|-------------------|-----------------|-------------------|-----------------|
|-------------------|-----------------|-------------------|-----------------|
|
| +E  E E E E E E E   E E E E E E E E   E +E  E E E E E E   E E E E E E E E
|-------------------|-----------------|-------------------|-----------------|
|-------------------|-----------------|-------------------|-----------------|
|-------------------|-----------------|-------------------|-----------------|
|-(3)-3-3-3-3-3-3-3-|-3-3-3-3-3-5-5-5-|-3-(3)-3-3-3-3-3-3-|-3-3-3-3-3-5-5-5-|
|-(3)-3-3-3-3-3-3-3-|-3-3-3-3-3-5-5-5-|-3-(3)-3-3-3-3-3-3-|-3-3-3-3-3-5-5-5-|
|-(3)-3-3-3-3-3-3-3-|-3-3-3-3-3-5-5-5-|-3-(3)-3-3-3-3-3-3-|-3-3-3-3-3-5-5-5-|


  A5                          G5      A5                          G5    F5
  Q E E Q   E   E   Q E E Q   E   E   Q  E  E Q   E   E   Q E E Q   E   E
|-----------------|-----------------|-------------------|-----------------|
|-------8---------|-------5---------|---------8---------|-------5---------|
|---5-------5-----|---2-------2-----|----5--------5-----|---2-------2-----|
|-7---7---------7-|-5---5---------5-|-7-----7---------7-|-5---5---------5-|
|-----------------|-----------------|-------------------|-----------------|
|-----------------|-----------------|-------------------|-----------------|
|
| E E E E E E E E   E E E E E E E E   E +E  E E E E E E   E E E E E E E E
|-----------------|-----------------|-------------------|-----------------|
|-----------------|-----------------|-------------------|-----------------|
|-----------------|-----------------|-------------------|-----------------|
|-7-7-7-7-7-7-7-7-|-7-7-7-7-7-5-5-5-|-7-(7)-7-7-7-7-7-7-|-7-7-7-7-5-5-5-3-|
|-7-7-7-7-7-7-7-7-|-7-7-7-7-7-5-5-5-|-7-(7)-7-7-7-7-7-7-|-7-7-7-7-5-5-5-3-|
|-7-7-7-7-7-7-7-7-|-7-7-7-7-7-5-5-5-|-7-(7)-7-7-7-7-7-7-|-7-7-7-7-5-5-5-3-|


                                G5      F5                            G5
   Q  E E Q   E   E   Q E E Q   E   E   Q  E  E Q   E   E   E E E E H
|---------3---------|-----------------|-------------------|-----------------||
|-------------------|-------5---------|---------8---------|-5-6-5---3-------||
|-----5-------5-----|---2-------2-----|----5--------5-----|-------5---------||
|--7----7---------7-|-5---5---------5-|-7-----7---------7-|-----------------||
|-------------------|-----------------|-------------------|-----------------||
|-------------------|-----------------|-------------------|-----------------||
|
| +E  E E E E E E E   E E E E E E E E   E +E  E E E E E E   E E E E E E E E
|-------------------|-----------------|-------------------|-----------------||
|-------------------|-----------------|-------------------|-----------------||
|-------------------|-----------------|-------------------|-----------------||
|-(3)-3-3-3-3-3-3-3-|-3-3-3-3-3-5-5-5-|-3-(3)-3-3-3-3-3-3-|-3-3-3-3-3-5-5-5-||
|-(3)-3-3-3-3-3-3-3-|-3-3-3-3-3-5-5-5-|-3-(3)-3-3-3-3-3-3-|-3-3-3-3-3-5-5-5-||
|-(3)-3-3-3-3-3-3-3-|-3-3-3-3-3-5-5-5-|-3-(3)-3-3-3-3-3-3-|-3-3-3-3-3-5-5-5-||


 Verse
  A5                         G5      A5                       G5    F5
  W                W                 W                W
|----------------|-----------------|----------------|-----------------|
|----------------|-----------------|----------------|-----------------|
|-2--------------|-----------------|----------------|-----------------|
|----------------|-----------------|----------------|-----------------|
|----------------|-----------------|----------------|-----------------|
|----------------|-----------------|----------------|-----------------|
|
|    PM--------------------|            PM--------------------------|
| Q  E E E E E E   E E E E E E E E   Q  E E E E E E   E E E E E E E E
|----------------|-----------------|----------------|-----------------|
|----------------|-----------------|----------------|-----------------|
|----------------|-----------------|----------------|-----------------|
|----------------|-----------------|----------------|-----------------|
|-7--7-7-7-7-7-7-|-7-7-7-7-7-5-5-5-|-7--7-7-7-7-7-7-|-7-7-7-7-5-5-5-3-|
|-7--7-7-7-7-7-7-|-7-7-7-7-7-5-5-5-|-7--7-7-7-7-7-7-|-7-7-7-7-5-5-5-3-|


                                G5      F5                         G5
  Gtr II
        PM--------------------|            PM--------------------|
  +E  E E E E E E E   E E E E E E E E   Q  E E E E E E   E E E E E E E E
|-------------------|-----------------|----------------|-----------------||
|-------------------|-----------------|----------------|-----------------||
|-------------------|-----------------|----------------|---------------5-||
|-------------------|-----------------|----------------|-----------------||
|-(3)-3-3-3-3-3-3-3-|-3-3-3-3-3-5-5-5-|-3--3-3-3-3-3-3-|-3-3-3-3-3-5-5-5-||
|-(3)-3-3-3-3-3-3-3-|-3-3-3-3-3-5-5-5-|-3--3-3-3-3-3-3-|-3-3-3-3-3-5-5-5-||


  $
  A5                          G5      A5                          G5    F5
  Gtr I
  Q   E E Q   E E   Q   E E Q   E E   Q     E E Q   E E   Q   E E Q   E E
|-----------------|-----------------|-------------------|-----------------|
|---------8-------|---------5-------|-----------8-------|---------5-------|
|-----5-------5---|-----2-------2---|-------5-------5---|-----2-------2---|
|-7-----7-------7-|-5-----5-------5-|-7-------7-------7-|-5-----5-------5-|
|-----------------|-----------------|-------------------|-----------------|
|-----------------|-----------------|-------------------|-----------------|
|
| Gtr II
| E E E E E E E E   E E E E E E E E   E +E  E E E E E E   E E E E E E E E
|-----------------|-----------------|-------------------|-----------------|
|-----------------|-----------------|-------------------|-----------------|
|-----------------|-----------------|-------------------|-----------------|
|-7-7-7-7-7-7-7-7-|-7-7-7-7-7-5-5-5-|-7-(7)-7-7-7-7-7-7-|-7-7-7-7-5-5-5-3-|
|-7-7-7-7-7-7-7-7-|-7-7-7-7-7-5-5-5-|-7-(7)-7-7-7-7-7-7-|-7-7-7-7-5-5-5-3-|
|-7-7-7-7-7-7-7-7-|-7-7-7-7-7-5-5-5-|-7-(7)-7-7-7-7-7-7-|-7-7-7-7-5-5-5-3-|


                                G5      F5                            G5
   Q  E E Q   E   E   Q E E Q   E   E   Q  E  E Q   E   E   Q E E Q   E   E
|-------------------|-----------------|-------------------|-----------------||
|---------8---------|-------5---------|---------8---------|-------5---------||
|-----5-------5-----|---2-------2-----|----5--------5-----|---2-------2-----||
|--7----7---------7-|-5---5---------5-|-7-----7---------7-|-5---5---------5-||
|-------------------|-----------------|-------------------|-----------------||
|-------------------|-----------------|-------------------|-----------------||
|
| +E  E E E E E E E   E E E E E E E E   E +E  E E E E E E   E E E E E E E E
|-------------------|-----------------|-------------------|-----------------||
|-------------------|-----------------|-------------------|-----------------||
|-------------------|-----------------|-------------------|-----------------||
|-(3)-3-3-3-3-3-3-3-|-3-3-3-3-3-5-5-5-|-3-(3)-3-3-3-3-3-3-|-3-3-3-3-3-5-5-5-||
|-(3)-3-3-3-3-3-3-3-|-3-3-3-3-3-5-5-5-|-3-(3)-3-3-3-3-3-3-|-3-3-3-3-3-5-5-5-||
|-(3)-3-3-3-3-3-3-3-|-3-3-3-3-3-5-5-5-|-3-(3)-3-3-3-3-3-3-|-3-3-3-3-3-5-5-5-||


   Chorus
                      A5                F5
    Gtrs I, II
    E E E E E E E E   E E E E E E E E   E E E E E E E E   E E E E E E E E   4x
||------------------|-----------------|-----------------|-------------------||
||o-----------------|-----------------|-----------------|------------------o||
||------------------|-----------------|-----------------|-------------------||
||--5-5-5-5-5-5-5-5-|-7-7-7-7-7-7-7-7-|-3-3-3-3-3-3-3-3-|-3-3-3-3-3-3-3-3---||
||o-5-5-5-5-5-5-5-5-|-7-7-7-7-7-7-7-7-|-3-3-3-3-3-3-3-3-|-3-3-3-3-3-3-3-3--o||
||--5-5-5-5-5-5-5-5-|-7-7-7-7-7-7-7-7-|-3-3-3-3-3-3-3-3-|-3-3-3-3-3-3-3-3---||


                     To Coda
  A5              F5
  Gtr I
  Q   E  E E  E E  E    +W
|--------------------|----------||
|--------------------|----------||
|--------------------|----------||
|-7\--9-10-9---------|----------||
|-7\---------10-7----|----------||
|-7\--------------10-|-(10)-----||
|
| Gtr II
| Q   H         E  E    +W
|--------------------|----------||
|--------------------|----------||
|--------------------|----------||
|-7\---------------3-|--(3)-----||
|-7\---------------3-|--(3)-----||
|-7\---------------3-|--(3)-----||


 Verse
  Am/E
               >
   W          +W           +W           +W
|-^0--------|-(0)--------|-(0)--------|-(0)----|
|-^1--------|-(1)--------|-(1)--------|-(1)----|
|-^2--------|-(2)--------|-(2)--------|-(2)----|
|-^2--------|-(2)--------|-(2)--------|-(2)----|
|-----------|------------|------------|--------|
|-----------|------------|------------|--------|
|
|  W           W            W            W
|-----------|------------|------------|--------|
|-----------|------------|------------|--------|
|-----------|------------|------------|--------|
|-----------|------------|------------|--------|
|-----------|------------|------------|--------|
|-----------|------------|------------|--------|


                                                          D.S. al Coda
  F5                          G5      F5                          G5
  E E E E E E E E   E E E E E E E E   E E E E E E E E   E E E E E E E E
|-----------------|-----------------|-----------------|-----------------||
|-------8---8---8-|-------5---5---5-|-------8---8---8-|-------5---5---5-||
|---5-----5---5---|---2-----2---2---|---5-----5---5---|---2-----2---2---||
|-7---7-----------|-5---5-----------|-7---7-----------|-5---5-----------||
|-----------------|-----------------|-----------------|-----------------||
|-----------------|-----------------|-----------------|-----------------||
|
|     PM--------------------|             PM--------------------|
| Q   E E E E E E   E E E E E E E E   Q   E E E E E E   E E E E E E E E
|-----------------|-----------------|-----------------|-----------------||
|-----------------|-----------------|-----------------|-----------------||
|-----------------|-----------------|-----------------|-----------------||
|-----------------|-----------------|-----------------|-----------------||
|-3---3-3-3-3-3-3-|-3-3-3-3-3-5-5-5-|-3---3-3-3-3-3-3-|-3-3-3-3-3-5-5-5-||
|-3---3-3-3-3-3-3-|-3-3-3-3-3-5-5-5-|-3---3-3-3-3-3-3-|-3-3-3-3-3-5-5-5-||


 Interlude
  &
  Am
  Gtrs I, II
   W                        +W
|--0----------------------|-(0)----------------------|
|--1----------------------|-(1)----------------------|
|--2----------------------|-(2)----------------------|
|--2----------------------|-(2)----------------------|
|--0----------------------|--------------------------|
|-------------------------|--------------------------|
|
| Gtr IV
|  e  e  e  e  e  e  e  e    e   e  e  e  e  e  e  e
|-21-20-------21-20-------|-21--20-------21-20-------|
|-------20-18-------20-18-|--------20-18-------20-18-|
|-------------------------|--------------------------|
|-------------------------|--------------------------|
|-------------------------|--------------------------|
|-------------------------|--------------------------|


  +W                         +W
|-(0)----------------------|-(0)----------------------|
|-(1)----------------------|-(1)----------------------|
|-(2)----------------------|-(2)----------------------|
|-(2)----------------------|-(2)----------------------|
|--------------------------|--------------------------|
|--------------------------|--------------------------|
|
|  e   e  e  e  e  e  e  e    e   e  e  e  e  e  e  e
|-21--20-------21-20-------|-21--20-------21-20-------|
|--------20-18-------20-18-|--------20-18-------20-18-|
|--------------------------|--------------------------|
|--------------------------|--------------------------|
|--------------------------|--------------------------|
|--------------------------|--------------------------|


  +W                         +W
|-(0)----------------------|-(0)----------------------|
|-(1)----------------------|-(1)----------------------|
|-(2)----------------------|-(2)----------------------|
|-(2)----------------------|-(2)----------------------|
|--------------------------|--------------------------|
|--------------------------|--------------------------|
|
|  e   e  e  e  e  e  e  e    e   e  e  e  e  e  e  e
|-21--20-------21-20-------|-21--20-------21-20-------|
|--------20-18-------20-18-|--------20-18-------20-18-|
|--------------------------|--------------------------|
|--------------------------|--------------------------|
|--------------------------|--------------------------|
|--------------------------|--------------------------|


  +W                         +W
|-(0)----------------------|-(0)----------------------|
|-(1)----------------------|-(1)----------------------|
|-(2)----------------------|-(2)----------------------|
|-(2)----------------------|-(2)----------------------|
|--------------------------|--------------------------|
|--------------------------|--------------------------|
|
|  e   e  e  e  e  e  e  e    e   e  e  e  e  e  e  e
|-21--20-------21-20-------|-21--20-------21-20-------|
|--------20-18-------20-18-|--------20-18-------20-18-|
|--------------------------|--------------------------|
|--------------------------|--------------------------|
|--------------------------|--------------------------|
|--------------------------|--------------------------|


  N.C.
   PM------------------------------------------------
   E  E  E  E  E  E  E  E    E  E  E  E  E  E  E  E
|-------------------------|-------------------------|
|-------------------------|-------------------------|
|-------------------------|-------------------------|
|--7--7--7--7--7--7--7--7-|--2--2--2--2--2--2--2--2-|
|-------------------------|-------------------------|
|-------------------------|-------------------------|
|
|  e  e  e  e  e  e  e  e    e  e  e  e  e  e  e  e
|-21-20-------21-20-------|-21-20-------21-20-------|
|-------20-18-------20-18-|-------20-18-------20-18-|
|-------------------------|-------------------------|
|-------------------------|-------------------------|
|-------------------------|-------------------------|
|-------------------------|-------------------------|


 ------------------------------------------------|
   E  E  E  E  E  E  E  E    E  E  E  E  E  E  E  E
|-------------------------|-------------------------|
|-------------------------|-------------------------|
|-------------------------|-------------------------|
|--3--3--3--3--3--3--3--3-|--5--5--5--5--5--5--5--5-|
|-------------------------|-------------------------|
|-------------------------|-------------------------|
|
|  e  e  e  e  e  e  e  e    e  e  e  e  e  e  e  e
|-21-20-------21-20-------|-21-20-------21-20-------|
|-------20-18-------20-18-|-------20-18-------20-18-|
|-------------------------|-------------------------|
|-------------------------|-------------------------|
|-------------------------|-------------------------|
|-------------------------|-------------------------|


   PM------------------------------------------------
   E  E  E  E  E  E  E  E    E  E  E  E  E  E  E  E
|-------------------------|-------------------------|
|-------------------------|-------------------------|
|-------------------------|-------------------------|
|--0--0--0--0--0--0--0--0-|--2--2--2--2--2--2--2--2-|
|-------------------------|-------------------------|
|-------------------------|-------------------------|
|
|  e  e  e  e  e  e  e  e    e  e  e  e  e  e  e  e
|-21-20-------21-20-------|-21-20-------21-20-------|
|-------20-18-------20-18-|-------20-18-------20-18-|
|-------------------------|-------------------------|
|-------------------------|-------------------------|
|-------------------------|-------------------------|
|-------------------------|-------------------------|


 ------------------------------------------------|
   E  E  E  E  E  E  E  E    E  E  E  E  E  E  E  E
|-------------------------|-------------------------||
|-------------------------|-------------------------||
|-------------------------|-------------------------||
|--3--3--3--3--3--3--3--3-|--5--5--5--5--5--5--5--5-||
|-------------------------|-------------------------||
|-------------------------|-------------------------||
|
|  e  e  e  e  e  e  e  e    e  e  e  e  e  e  e  e
|-21-20-------21-20-------|-21-20-------21-20-------||
|-------20-18-------20-18-|-------20-18-------20-18-||
|-------------------------|-------------------------||
|-------------------------|-------------------------||
|-------------------------|-------------------------||
|-------------------------|-------------------------||


 Bridge
  GtGtr III
  E E E E E E E E   E E E E E E E E   E E E E E E E E   E E E E E E E E
|-----------------|-----------------|-----------------|-----------------|
|-----------------|-----------------|-----------------|-----------------|
|-----------------|-----------------|-----------------|-----------------|
|-----------------|-----------------|-----------------|-----------------|
|---3---3---3---3-|---3---3---3---3-|---3---3---3---3-|---5---5---5---5-|
|-7---7---7---7---|-2---2---2---2---|-3---3---3---3---|-5---5---5---5---|
|
| Gtr II
| PM------------------------------------------------------------------|
| E E E E E E E E   E E E E E E E E   E E E E E E E E   E E E E E E E E
|-----------------|-----------------|-----------------|-----------------|
|-----------------|-----------------|-----------------|-----------------|
|-----------------|-----------------|-----------------|-----------------|
|-----------------|-----------------|-----------------|-----------------|
|-----------------|-----------------|-----------------|-----------------|
|-7-7-7-7-7-7-7-7-|-2-2-2-2-2-2-2-2-|-3-3-3-3-3-3-3-3-|-5-5-5-5-5-5-5-5-|


  E E E E E E E E   E E E E E E E E   E E E E E E E E   E E E E E E E E
|-----------------|-----------------|-----------------|-----------------||
|-----------------|-----------------|-----------------|-----------------||
|-----------------|-----------------|-----------------|-----------------||
|-----------------|-----------------|-----------------|-----------------||
|---0---0---0---0-|---2---2---2---2-|---3---3---3---3-|---5---5---5---5-||
|-0---0---0---0---|-2---2---2---2---|-3---3---3---3---|-5---5---5---5---||
|
| E E E E E E E E   E E E E E E E E   E E E E E E E E   E E E E E E E E
|-----------------|-----------------|-----------------|-----------------||
|-----------------|-----------------|-----------------|-----------------||
|-----------------|-----------------|-----------------|---------------5-||
|-----------------|-----------------|-----------------|-----------------||
|-----------------|-----------------|-----------------|-----------------||
|-0-0-0-0-0-0-0-0-|-2-2-2-2-2-2-2-2-|-3-3-3-3-3-3-3-3-|-5-5-5-5-5-5-5-5-||


  A5                E5                F5                G5
  Gtr I
  E E E Q   Q   E   E E E Q   Q   E   E E E Q   Q   E   E E E Q   Q   E
|-----------------|-----------------|-----------------|-----------------|
|-------8---------|-------5---------|-------8---------|-------5---------|
|---5-------5-----|---2-------2-----|---5-------5-----|---2-------2-----|
|-7---7---------7-|-5---5---------5-|-7---7---------7-|-5---5---------5-|
|-----------------|-----------------|-----------------|-----------------|
|-----------------|-----------------|-----------------|-----------------|
|
| PM------------------------------------------------------------------|
| E E E E E E E E   E E E E E E E E   E E E E E E E E   E E E E E E E E
|-----------------|-----------------|-----------------|-----------------|
|-----------------|-----------------|-----------------|-----------------|
|-----------------|-----------------|-----------------|-----------------|
|-----------------|-----------------|-----------------|-----------------|
|-7-7-7-7-7-7-7-7-|-2-2-2-2-2-2-2-2-|-3-3-3-3-3-3-3-3-|-5-5-5-5-5-5-5-5-|
|-7-7-7-7-7-7-7-7-|-2-2-2-2-2-2-2-2-|-3-3-3-3-3-3-3-3-|-5-5-5-5-5-5-5-5-|


  D5                E5                F5                G5
  E E E Q   Q   E   E E E Q   Q   E   E E E Q   Q   E   E E E Q   Q   E
|-----------------|-----------------|-----------------|-----------------||
|-------8---------|-------5---------|-------8---------|-------5---------||
|---5-------5-----|---2-------2-----|---5-------5-----|---2-------2-----||
|-7---7---------7-|-5---5---------5-|-7---7---------7-|-5---5---------5-||
|-----------------|-----------------|-----------------|-----------------||
|-----------------|-----------------|-----------------|-----------------||
|
| PM------------------------------|
| E E E E E E E E   E E E E E E E E   E E E E E E E E   E E E E E E E E
|-----------------|-----------------|-----------------|-----------------||
|-----------------|-----------------|-----------------|-----------------||
|-----------------|-----------------|-----------------|-----------------||
|-----------------|-----------------|-----------------|-----------------||
|-0-0-0-0-0-0-0-0-|-2-2-2-2-2-2-2-2-|-3-3-3-3-3-3-3-3-|-5-5-5-5-5-5-5-5-||
|-0-0-0-0-0-0-0-0-|-2-2-2-2-2-2-2-2-|-3-3-3-3-3-3-3-3-|-5-5-5-5-5-5-5-5-||


 Chorus
  G5                      F5
  Q  H.        W          E E E E E E E E   E E E E E E E E
|------------|----------|-----------------|-----------------|
|------------|----------|-----------------|-----------------|
|------------|----------|-5-5-5-5-5-5-5-5-|-5-5-5-5-5-5-5-5-|
|-5----------|----------|-----------------|-----------------|
|-5----------|----------|-3-3-3-3-3-3-3-3-|-3-3-3-3-3-3-3-3-|
|-5----------|----------|-----------------|-----------------|
|
| Q  H.        W          E E E E E E E E   E E E E E E E E
|------------|----------|-----------------|-----------------|
|------------|----------|-----------------|-----------------|
|------------|----------|-----------------|-----------------|
|-5----------|----------|-3-3-3-3-3-3-3-3-|-3-3-3-3-3-3-3-3-|
|-5----------|----------|-3-3-3-3-3-3-3-3-|-3-3-3-3-3-3-3-3-|
|-5----------|----------|-3-3-3-3-3-3-3-3-|-3-3-3-3-3-3-3-3-|


    G5                A5                F5
    E E E E E E E E   E E E E E E E E   E E E E E E E E   E E E E E E E E   3x
||------------------|-----------------|-----------------|-------------------||
||o-----------------|-----------------|-----------------|------------------o||
||--5-5-5-5-5-5-5-5-|-5-5-5-5-5-5-5-5-|-5-5-5-5-5-5-5-5-|-5-5-5-5-5-5-5-5---||
||------------------|-----------------|-----------------|-------------------||
||o-3-3-3-3-3-3-3-3-|-3-3-3-3-3-3-3-3-|-3-3-3-3-3-3-3-3-|-3-3-3-3-3-3-3-3--o||
||------------------|-----------------|-----------------|-------------------||
|
|   E E E E E E E E   E E E E E E E E   E E E E E E E E   E E E E E E E E   3x
||------------------|-----------------|-----------------|-------------------||
||o-----------------|-----------------|-----------------|------------------o||
||------------------|-----------------|-----------------|-------------------||
||--5-5-5-5-5-5-5-5-|-7-7-7-7-7-7-7-7-|-3-3-3-3-3-3-3-3-|-3-3-3-3-3-3-3-3---||
||o-5-5-5-5-5-5-5-5-|-7-7-7-7-7-7-7-7-|-3-3-3-3-3-3-3-3-|-3-3-3-3-3-3-3-3--o||
||--5-5-5-5-5-5-5-5-|-7-7-7-7-7-7-7-7-|-3-3-3-3-3-3-3-3-|-3-3-3-3-3-3-3-3---||


    G5                A5                F5
    Gtr I
    E E E E E E E E   E E E E E E E E   E E E E E E E E   E E E E E E E E
||------------------|-----------------|-----------------|-------------------||
||o-----------------|-----------------|-----------------|------------------o||
||--5-5-5-5-5-5-5-5-|-5-5-5-5-5-5-5-5-|-5-5-5-5-5-5-5-5-|-5-5-5-5-5-5-5-5---||
||------------------|-----------------|-----------------|-------------------||
||o-3-3-3-3-3-3-3-3-|-3-3-3-3-3-3-3-3-|-3-3-3-3-3-3-3-3-|-3-3-3-3-3-3-3-3--o||
||------------------|-----------------|-----------------|-------------------||
|
|   Gtr II
|   E E E E E E E E   E E E E E E E E   E E E E E E E E   E E E E E E E E
||------------------|-----------------|-----------------|-------------------||
||o-----------------|-----------------|-----------------|------------------o||
||------------------|-----------------|-----------------|-------------------||
||--5-5-5-5-5-5-5-5-|-7-7-7-7-7-7-7-7-|-3-3-3-3-3-3-3-3-|-3-3-3-3-3-3-3-3---||
||o-5-5-5-5-5-5-5-5-|-7-7-7-7-7-7-7-7-|-3-3-3-3-3-3-3-3-|-3-3-3-3-3-3-3-3--o||
||--5-5-5-5-5-5-5-5-|-7-7-7-7-7-7-7-7-|-3-3-3-3-3-3-3-3-|-3-3-3-3-3-3-3-3---||


    G5                    A5
    E E E E  E  E  E  E   E E E E  E  E  E  E
||----------------------|---------------------|
||o---------------------|---------------------|
||--9-9-9-9-10-10-10-10-|-9-9-9-9-10-10-10-10-|
||----------------------|---------------------|
||o-7-7-7-7--8--8--8--8-|-7-7-7-7--8--8--8--8-|
||----------------------|---------------------|
|
|   E E E E  E  E  E  E   E E E E  E  E  E  E
||----------------------|---------------------|
||o---------------------|---------------------|
||----------------------|---------------------|
||--5-5-5-5--5--5--5--5-|-7-7-7-7--7--7--7--7-|
||o-5-5-5-5--5--5--5--5-|-7-7-7-7--7--7--7--7-|
||--5-5-5-5--5--5--5--5-|-7-7-7-7--7--7--7--7-|


  F5
  E E E E  E  E  E  E   E E E E  E  E  E  E
|---------------------|-----------------------||
|---------------------|----------------------o||
|-9-9-9-9-10-10-10-10-|-9-9-9-9-10-10-10-10---||
|---------------------|-----------------------||
|-7-7-7-7--8--8--8--8-|-7-7-7-7--8--8--8--8--o||
|---------------------|-----------------------||
|
| E E E E  E  E  E  E   E E E E  E  E  E  E
|---------------------|-----------------------||
|---------------------|----------------------o||
|---------------------|-----------------------||
|-3-3-3-3--3--3--3--3-|-3-3-3-3--3--3--3--3---||
|-3-3-3-3--3--3--3--3-|-3-3-3-3--3--3--3--3--o||
|-3-3-3-3--3--3--3--3-|-3-3-3-3--3--3--3--3---||


  A5  N.C.        F5
  Q   E  E E  E E  E    +W            +W            +W
|--------------------|-------------|-------------|---------*|
|--------------------|-------------|-------------|---------*|
|--------------------|-------------|-------------|---------*|
|-7\--9-10-9---------|-------------|-------------|---------*|
|-7\---------10-7----|-------------|-------------|---------*|
|-7\--------------10-|-(10)--------|-(10)--------|-(10)----*|
|
| Q   H         E  E    +W            +W            +W
|--------------------|-------------|-------------|---------*|
|--------------------|-------------|-------------|---------*|
|--------------------|-------------|-------------|---------*|
|-7\---------------3-|--(3)--------|--(3)--------|--(3)----*|
|-7\---------------3-|--(3)--------|--(3)--------|--(3)----*|
|-7\---------------3-|--(3)--------|--(3)--------|--(3)----*|


 

Duration Legend
---------------
W - whole; H - half; Q - quarter; E - 8th; S - 16th; T - 32nd; X - 64th; a - acciaccatura
+ - note tied to previous; . - note dotted; .. - note double dotted
Uncapitalized letters represent notes that are staccato (1/2 duration)
Irregular groupings are notated above the duration line
Duration letters will always appear directly above the note/fret number it represents the
duration for.  Duration letters with no fret number below them represent rests.  Multi-
bar rests are notated in the form Wxn, where n is the number of bars to rest for.  Low
melody durations appear below the staff

Tablature Legend
----------------
 h   - hammer-on
 p   - pull-off
 b   - bend
 pb  - pre-bend
 r   - bend release (if no number after the r, then release immediately)
 /\  - slide into or out of (from/to "nowhere")
 s   - legato slide
 S   - shift slide
 - natural harmonic
[n]  - artificial harmonic
n(n) - tapped harmonic
 ~   - vibrato
 tr  - trill
 T   - tap
 TP  - trem. picking
 PM  - palm muting
\n/  - tremolo bar dip; n = amount to dip
 \n  - tremolo bar down
 n/  - tremolo bar up
/n\  - tremolo bar inverted dip
 =   - hold bend; also acts as connecting device for hammers/pulls
 <> - volume swell (louder/softer)
 x   - on rhythm slash represents muted slash
 o   - on rhythm slash represents single note slash

Misc Legend
-----------
 |  - bar
||  - double bar
||o - repeat start
o|| - repeat end
*|  - double bar (ending)
 :  - bar (freetime)
 $  - Segno
 &  - Coda
Tempo markers -  = BPM(8/16=s8/s16), where s8 = swing 8ths, s16 = swing 16ths

 
** Generated using Power Tab Editor by Brad Larsen: The Official Power Tab Web Site
Tap to rate this tab
 
# A B C D E F G H I J K L M N O P Q R S T U V W X Y Z