Guitaretab - guitar tabs
Song name
# A B C D E F G H I J K L M N O P Q R S T U V W X Y Z

Underoath - Ive Got Ten Friends And A Crowber That Says You Aint Gonna Do Jack tab

tabbed by herbert perez
drop D tuning, i love this song hope you enjoy it as much as i do!
Underoath is the shiz...

(Carried out the sound...) also the chorus
e]---------------------------------------------------------------|
b]---------------------------------------------------------------|
g]--44444--------------------------------------------------------|
d]--44444-222-444-5----------------------------------------------|
a]--22222-222-444-5-alot-----------------------------------------|
D]--------222-444-5----------------------------------------------|
[ Tab from: http://www.guitaretab.com/u/underoath/66447.html ]
(At first glance Iíll breathe in...)   palm mute    3x
e]--------------------------------------------------------------------|
b]--------------------------------------------------------------------|
g]--4444444444444444---777777777-----------------555555555------------|
d]--4444444444444444---777777777---4444444444444-555555555------------|
a]--2222222222222222---------------4444444444444-555555555------------|
D]---------------------------------4444444444444-555555555------------|

e]---------------------------------------------------------------|
b]---------------------------------------------------------------|
g]---------------------------------------------------------------|
d]-5555555555-7777777777-----------------------------------------|
a]-5555555555-7777777777-----------------------------------------|
D]-5555555555-7777777777-----------------------------------------|

(chorus)

(We look so good, we look so good, as we fall,
as we fall, as we fall.)

e]--------------------------------|
b]--------------------------------|
g]-4------------------------------|
d]-4------a couple times----------|
a]-2------------------------------|
D]--------------------------------|

(I'll go ahead and re-elect perfection...)
e]--------------------3-----3--------------|
b]--------8-7-------5-----5----------------|
g]-6-7-----------4------4-------6~---------| a couple times
d]-----9------7----------------------------|
a]-----------------------------------------|
D]-----------------------------------------|


chorus
Related for Ive Got Ten Friends And A Crowber That Says You Aint Gonna Do Jack tab