Song name
# A B C D E F G H I J K L M N O P Q R S T U V W X Y Z

Underoath - Casting Such A Thin Shadow tab

Song: Casting Such A Thin Shadow (Track 7)
Song Length: 6:13
Artist: UnderOath
Album: Define The Great Line (Tooth And Nail and Solid State Records)
Tabbed By: Matthew Hunky (Bunnyslayer91@aol.com)
Tuning: Drop D (DADGBE)


Well, I'm just mindin' my own buisness getting a UnderOath tab. So I listen to the track
looking at it and notice its wrong. The guy before (one of 'em) didn't realize there
two guitars (Tim McAgue and James Smith). No offense dude, I mean I'm not hatin'. 
I went through the whole tab and claeaned it up. I'd say it's 99.9% accurate. I hope you
Also When you see numbers below the tab, I'm keeping the beat. Btw this is my first tab, 
if you feel like it, please comment, 'cause I'd love to hear how've I've done in your opinion.


Key: (both guitars)
/-Slide Up
\-Slide Down
(x#)- Play the note number amount
P.M. or *-Palm Mute
(~)-Hold the note or power chord(Listen to Track for how long you need to hold it or
at the numbers I put beow the tabs.)


-----------------------------------------------------------------------------
_ _ _ _ _ _ _ _ _ _ _ _ _ _ _ _ _ _ _ _ _ _ _ _ _ _ _ _ _ _ _ _ _ _ _ _ _ _ _
_ _ _ _ _ _ _ _ _ _ _ _ _ _ _ _Guitar 1_ _ _ _ _ _ _ _ _ _ _ _ _ _ _ _ _ _ _

-----------------------------------------------------------------------------

Note: Guitar 1 and 2 both have 2 parts in the first section of the Intro. Guitar 2 is
but basically It's just;
Part 1
Part 2
Part 1
Part 2
That goes for both guitars.


Intro (Keyboard): 0:00-0:15
E|--------------------------------------------------------------------------|
B|--------------------------------------------------------------------------|
G|--------------------------------------------------------------------------|
D|--------------------------------------------------------------------------|
A|-5-8-7~--------5-8-7~---------5-3~-------0~(Hold till guitars comes in)---|
D|----------------------------3---------------------------------------------|

       (2, 3, 4,)    (2, 3, 4)    (2, 3, 4)


Intro: Part 1 (Guitar 1) 0:16-1:24
E|--------------------------------------------------------------------------|
B|--------------------------------------------------------------------------|
G|-9/10-9-7-7/9*~---------9/10-9-7-7/9~-------------------------------------|
D|--------------------------------------------------------------------------|
A|------------------------------------------------3~/10~-----------5~-------|
D|--------------------------------------------------------------------------|
*This slide is where you hear the 7 and the 9 equally rather just the 9 most.
              (1, 2, 3, 4)            (1, 2, 3, 4)     (1, 2, 3, 4)

Part 2
E|--------------------------------------------------------------------------|
B|--------------------------------------------------------------------------|
G|-9/10-9-7-7/9~----------9/10-9-7-7/9~-------------------------------------|
D|--------------------------------------------------------------------------|
A|------------------------------------------------3~/10~-----------5~-8-7---|
D|--------------------------------------------------------------------------|
              (1, 2, 3, 4)            (1, 2, 3, 4)     (1, 2, 3, 4)

Part 1
E|--------------------------------------------------------------------------|
B|--------------------------------------------------------------------------|
G|-9/10-9-7-7/9*~---------9/10-9-7-7/9~-------------------------------------|
D|--------------------------------------------------------------------------|
A|------------------------------------------------3~/10~-----------5~-------|
D|--------------------------------------------------------------------------|
              (1, 2, 3, 4)            (1, 2, 3, 4)     (1, 2, 3, 4)

Part 2
E|--------------------------------------------------------------------------|
B|--------------------------------------------------------------------------|
G|-9/10-9-7-7/9~----------9/10-9-7-7/9~-------------------------------------|
D|--------------------------------------------------------------------------|
A|------------------------------------------------3~/10~-----------5~-8-7---|
D|--------------------------------------------------------------------------|
              (1, 2, 3, 4)            (1, 2, 3, 4)     (1, 2, 3, 4)

Rest Of Intro 1:25-2:57
E|---------------------------------------------------------------------------|
B|-----------------------------------------------------------------13---12---|
G|---------------------------------------------------------------9----9---9--|
D|-----7~(Hold 8 counts, then enter after bass slide)------------------------|
A|BASS:0-0-0-0-0-0-0-0-0-0-0-0-0-0-0)----------------------------------------|
D|-------------------------------------(BASS:5/7)----------------------------|
                       Not faster, same beat---------------------------------|(2,3,4,1,2,3,rest)

E|-----------------------------------------------------12-------------------|
B|-----------------------13---12-------------13---12------12-----13---12----|
G|---------------------9----9----9~--------9----9----9---------9----9----9~-|
D|--------------------------------------------------------------------------|
A|--------------------------------------------------------------------------|
D|--------------------------------------------------------------------------|
        (Drum part then^)        (2, 3, 4, 1)


E|--------------------------------------------------------12----------------|
B|------------------------13---12---------------13---12-----12----13---12---|
G|----------------------9----9----9~----------9----9----9-------9----9----9~|
D|--------------------------------------------------------------------------|
A|--------------------------------------------------------------------------|
D|--------------------------------------------------------------------------|
        (Drum part then ^)        (2, 3, 4, 1)


E|--------------------------------12----------------12----------------12----|
B|-----------------------13---12-----12----13---12-----12----13---12-----12-|
G|---------------------9----9----9-------9----9----9-------9----9----9------|
D|--------------------------------------------------------------------------|
A|--------------------------------------------------------------------------|
D|--------------------------------------------------------------------------|
        (Drum part then^)


E|--------------------------------------------------------------------------|
B|--------------------3-5-3-5-3-5-3-5-3-5-3-5-3-5-3-5---3---6-3---6-3---6-3-|
G|--------------------------------------------------------------------------|
D|----------------------------------------------------3---3-----3-----3----3|
A|--------------------------------------------------------------------------|
D|--------------------------------------------------------------------------|
       (Drum part then^)


E|--------------------------------------------------------------------------|
B|---3----6-3---6-3---6-3------3----6-3----6-3----6-3-----3----6-3---6-3----|
G|--------------------------------------------------------------------------|
D|---------------------------0---0------0------0-----0--3---3------3-----3--|
A|-0---0------0-----0-----0-------------------------------------------------|
D|--------------------------------------------------------------------------|


E|--------------------------------------------------------------------------|
B|-6-3------3----6-3-----6-3-----6-3----------------------------------------|
G|--------------------------------------------------------------------------|
D|-----3--------------------------------3-3-3-3-3-3-3-3-3-3-3-3-3-3---------|
A|--------0---0------0--------0------0--------------------------------------|
D|--------------------------------------------------------------------------|


Solo 2:58-3:32 (This is some sick tremolo. I just did 4 strums per count to figure it
so multiply the number of counts by 4 and that's what I got. The 17 is 32 counts, 15 is 8,
os 8, 12 is 32, 10 is 8, and 8 is 8. Just tap your foot to the counts (1, 2, 3, 4 and 
1,and 2,and 3,and 4) however many counts at four strums per count is the solo. Hope I'm right!)

Key:C-counts
E|--------------------------------------------------------------------------|
B|---5/17--------------------15------------------13----------12-------------|
G|----(^32C-x4=128 strums)--(^8C-x4=32 strums)--(^8Cx4=32)--(^32Cx4=128)----|
D|--------------------------------------------------------------------------|
A|--------------------------------------------------------------------------|
D|--------------------------------------------------------------------------|


E|--------------------------------------------------------------------------|
B|---10------------------8-----------------8/10~----------------------------|
G|--(^8C-x4=32 strums)--(^8C-x4=32 strums-----------------------------------|
D|--------------------------------------------------------------------------|
A|--------------------------------------------------------------------------|
D|--------------------------------------------------------------------------|

Verse: 3:49-4:22 (I think both guitars do this.) (Spencer And Aaron Singing.)
E|--------------------------------------------------------------------------|
B|--------------------------------------------------------------------------|
G|--------------------------------------------------------------------------|
D|-3/7-7-7-7-7-3/7-7-7-7-3-3-3-3-3/7-7-7-7-7-3/7-7-7-7-3-3-3-3-3/7-7-7-7-3/7|
A|-3/7-7-7-7-7-3/7-7-7-7-3-3-3-3-3/7-7-7-7-7-3/7-7-7-7-3-3-3-3-3/7-7-7-7-3/7|
D|-3/7-7-7-7-7-3/7-7-7-7-3-3-3-3-3/7-7-7-7-7-3/7-7-7-7-3-3-3-3-3/7-7-7-7-3/7|
   Speak       up            my ears  are growing weary, I'll sing this 'till


E|--------------------------------------------------------------------------|
B|--------------------------------------------------------------------------|
G|--------------------------------------------------------------------------|
D|-7-7-7-7-3-3-3-3/7-7-7-7-7-3/7-7-7-7-7-3-3-3-3-3/7-7-7-7-7-3/7-7-7-7-7-3-3|
A|-7-7-7-7-3-3-3-3/7-7-7-7-7-3/7-7-7-7-7-3-3-3-3-3/7-7-7-7-7-3/7-7-7-7-7-3-3|
D|-7-7-7-7-3-3-3-3/7-7-7-7-7-3/7-7-7-7-7-3-3-3-3-3/7-7-7-7-7-3/7-7-7-7-7-3-3|
   the end,  and watch the waves crash over me   Speak       up

E|--------------------------------------------------------------------------|
B|--------------------------------------------------------------------------|
G|--------------------------------------------------------------------------|
D|-3-3-3/7-7-7-7-3/7-7-7-7-7-3-3-3-3-3/7-7-7-7-7-3/7-7-7-7-7-3-3-3-3-3/7-7-7|
A|-3-3-3/7-7-7-7-3/7-7-7-7-7-3-3-3-3-3/7-7-7-7-7-3/7-7-7-7-7-3-3-3-3-3/7-7-7|
D|-3-3-3/7-7-7-7-3/7-7-7-7-7-3-3-3-3-3/7-7-7-7-7-3/7-7-7-7-7-3-3-3-3-3/7-7-7|
   my ears are  growing weary,  I'll sing this 'till the end, and watch the


E|--------------------------------------------------------------------------|
B|--------------------------------------------------------------------------|
G|--------------------------------------------------------------------------|
D|--7-7-3/7-7-7-7-7-/3-3-3-3\-----------------------------------------------|
A|--7-7-3/7-7-7-7-7--3-3-3-3--dont-P.M.,-just-put-your-fingers-over---------|
D|--7-7-3/7-7-7-7-7-\3-3-3-3/-the-3rd-fret-and-hit-the-strings-4x-----------|
  waves crash over me

Chorus: 4:23-4:55 (Just Spencer this time.)
E|--------------------------------------------------------------------------|
B|--------------------------------------------------------------------------|
G|--------------------------------------------------------------------------|
D|-7-7-7-7-7-7-7-7-7-7-7-7-7-7-7-7-9-9-9-9-9-9-9-9-9-9-9-9-9-9-9-9-5-5-5-5-5|
A|-7-7-7-7-7-7-7-7-7-7-7-7-7-7-7-7-7-7-7-7-7-7-7-7-7-7-7-7-7-7-7-7-5-5-5-5-5|
D|-7-7-7-7-7-7-7-7-7-7-7-7-7-7-7-7-7-7-7-7-7-7-7-7-7-7-7-7-7-7-7-7-5-5-5-5-5|
           Not  to  much  to over(rest)come      with enough       time to

E|--------------------------------------------------------------------------|
B|--------------------------------------------------------------------------|
G|--------------------------------------------------------------------------|
D|-5-5-5-5-5-5-5-5-5-5-5---2---------------3~3------------------------------|
A|-5-5-5-5-5-5-5-5-5-5-5-3---3-0---3-5-3-0----------------------------------|
D|-5-5-5-5-5-5-5-5-5-5-5-3-------0------------------------------------------|
   turn     it    all   around,

E|--------------------------------------------------------------------------|
B|--------------------------------------------------------------------------|
G|--------------------------------------------------------------------------|
D|-7-7-7-7-7-7-7-7-7-7-7-7-7-7-7-7-9-9-9-9-9-9-9-9-9-9-9-9-9-9-9-9-5-5-5-5-5|
A|-7-7-7-7-7-7-7-7-7-7-7-7-7-7-7-7-7-7-7-7-7-7-7-7-7-7-7-7-7-7-7-7-5-5-5-5-5|
D|-7-7-7-7-7-7-7-7-7-7-7-7-7-7-7-7-7-7-7-7-7-7-7-7-7-7-7-7-7-7-7-7-5-5-5-5-5|
           In  a  picture  per  fect       scenery    I've    become   a

E|--------------------------------------------------------------------------|
B|--------------------------------------------------------------------------|
G|--------------------------------------------------------------------------|
D|-5-5-5-5-5-5-5-5-5-5-5---2---------------3~3------------------------------|
A|-5-5-5-5-5-5-5-5-5-5-5-3---3-0---3-5-3-0----------------------------------|
D|-5-5-5-5-5-5-5-5-5-5-5-3-------0------------------------------------------|
   stick   figure   illistration


E|--------------------------------------------------------------------------|
B|--------------------------------------------------------------------------|
G|--------------------------------------------------------------------------|
D|-3/7-7-7-7-7-3/7-7-7-7-3-3-3-3-3/7-7-7-7-7-3/7-7-7-7-3-3-3-3--------------|
A|-3/7-7-7-7-7-3/7-7-7-7-3-3-3-3-3/7-7-7-7-7-3/7-7-7-7-3-3-3-3--------------|
D|-3/7-7-7-7-7-3/7-7-7-7-3-3-3-3-3/7-7-7-7-7-3/7-7-7-7-3-3-3-3--------------|
       My eyes roll back and  focous         on what's ahead,

E|--------------------------------------------------------------------------|
B|--------------------------------------------------------------------------|
G|--------------------------------------------------------------------------|
D|-3/7-7-7-7-7-3/7-7-7-7-7-3-3-3-3-3/7-7-7-7-7-3/7-7-7-7-7-3-3-3-3----------|
A|-3/7-7-7-7-7-3/7-7-7-7-7-3-3-3-3-3/7-7-7-7-7-3/7-7-7-7-7-3-3-3-3----------|
D|-3/7-7-7-7-7-3/7-7-7-7-7-3-3-3-3-3/7-7-7-7-7-3/7-7-7-7-7-3-3-3-3----------|
       I can still stand if you lend the hand to brace me,


Tremolo Solo Part 2: 5:13 (Guitar 2 does the verse riff) (Reminder: C=Counts)
E|--------------------------------------------------------------------------|
B|-18----------------/17-----------------13----------------15---------------|
G|(^8C-x4=32-strums)-(^8C-x4=32-strums)-(^8C-x4=32-strums)(^8C-x4=32-strums)|
D|--------------------------------------------------------------------------|
A|--------------------------------------------------------------------------|
D|--------------------------------------------------------------------------|
  I'll take this on my own               I'll take this on my own,

I think you just end it in a D (000xxx) like guitar 2.
E|--------------------------------------------------------------------------|
B|--------------------------------------------------------------------------|
G|--------------------------------------------------------------------------|
D|-0~-----------------------------------------------------------------------|
A|-0~-(Keyboard-comes-in-with-its-intro-from-beginning5:29)-----------------|
D|-0~-----------------------------------------------------------------------|

END OF GUITAR 1

-----------------------------------------------------------------------------
_ _ _ _ _ _ _ _ _ _ _ _ _ _ _ _ _ _ _ _ _ _ _ _ _ _ _ _ _ _ _ _ _ _ _ _ _ _ _
_ _ _ _ _ _ _ _ _ _ _ _ _ _ _ _Guitar 2_ _ _ _ _ _ _ _ _ _ _ _ _ _ _ _ _ _ _

-----------------------------------------------------------------------------

Note: Guitar 1 and 2 both have 2 parts in the first section of the Intro. Guitar 2 is
but basically It's just;
Part 1
Part 2
Part 1
Part 2
That goes for both guitars.


Intro (Keyboard): 0:00-0:15
E|--------------------------------------------------------------------------|
B|--------------------------------------------------------------------------|
G|--------------------------------------------------------------------------|
D|--------------------------------------------------------------------------|
A|-5-8-7~--------5-8-7~---------5-3~-------0~(Hold till guitars comes in)---|
D|--------------------------------------------------------------------------|
       (2, 3, 4,)    (2, 3, 4)    (2, 3, 4)

Intro Part 1 (Guitar 2): 0:16-1:24
E|--------------------------------------------------------------------------|
B|--------------------------------------------------------------------------|
G|-------------------------------------10-10-9------------------------------|
D|-0-3/10~--------0-3/10~--------3~/10---------7~10/9-----------------------|
A|--------------------------------------------------------------------------|
D|--------------------------------------------------------------------------|
         (2, 3, 4)      (2, 3, 4)

Part 2
E|------------------------------------------------3~------------------------|
B|--------------------------------------------------------------------------|
G|----------------------10-9------------4---5-5--------4---5-5--4-----------|
D|-0-3/10~--------3~/10--------7~10/9-5---5-----5----5---5----5-------------|
A|--------------------------------------------------------------------------|
D|--------------------------------------------------------------------------|
         (2, 3, 4)     (2, 3, 4)     (2, 3, 4)

Part 1
E|--------------------------------------------------------------------------|
B|--------------------------------------------------------------------------|
G|-------------------------------------10-10-9------------------------------|
D|-0-3/10~--------0-3/10~--------3~/10---------7~10/9-----------------------|
A|--------------------------------------------------------------------------|
D|--------------------------------------------------------------------------|
         (2, 3, 4)      (2, 3, 4)

Part 2
E|------------------------------------------------3~------------------------|
B|--------------------------------------------------------------------------|
G|----------------------10-9------------4---5-5-------4-5-4-----------------|
D|-0-3/10~--------3~/10--------7~10/9-5---5-----5-----------5-7~------------|
A|Hold-last-7-to-some-of-bass-part(see-Guitar-1s-end-of-part-2-the-2nd-time)|
D|--------------------------------------------------------------------------|
         (2, 3, 4)


Rest Of Intro 1:25-2:57
Note: For the strumming on the A and D strings, do it very faintly(quietly). I don't
if it's constant strumming or just one strum and hold, but i did the constant strum. Also
possibly palm muted, but I'll let you decide.
E|--------------------------------------------------------------------------|
B|--------------------------------------------------------------------------|
G|-----------------------------------------------7-7-5-5--------------------|
D|-----(Hold 8 counts, then enter after bass slide)------3-3-3-3-2-2-2-2-2-2|
A|BASS:0-0-0-0-0-0-0-0-0-0-0-0-0-0-0)---------------------------------------|
D|-------------------------------------(BASS:5/7)---------------------------|


E|--------------------------------------------------------------------------|
B|--------------------------------------------------------------------------|
G|--------------------------------------------------------------------------|
D|-2-2-2-2-2-2-2-2-2-2------------------------------------------------------|
A|--------------------------------------------------------------------------|
D|--------------------3-3-3-3-3-3-3-0-0-0-0-0-0-0-0-0-7-7-7-7-7-7-7-7-7-7-7-|

E|--------------------------------------------------------------------------|
B|--------------------------------------------------------------------------|
G|-------------------7-7-5-5------------------------------------------------|
D|---------------------------3-3-3-3----------------------------------------|
A|--------------------------------------------------------------------------|
D|-7-7-7-7-7-7-(5/7)-----------------5-5-5-5-5-5-5-5-5-5-5-5-5-5-5-5-3-3-3-3|
      Bass Slide^


E|--------------------------------------------------------------------------|
B|--------------------------------------------------------------------------|
G|--------------------------------------------------------------7-7-5-5-----|
D|-------------------------7-7-7-7-7-7-7-7-7-7-7-7-7-7-7-7--------------3-3-|
A|--------------------------------------------------------------------------|
D|-3-3-3-0-0-0-0-0-0-0-0-0--------------------------------(5/7)-------------|
                                     Once again, Bass Slide^

E|--------------------------------------------------------------------------|
B|--------------------------------------------------------------------------|
G|--------------------------------------------------------------------------|
D|-3-3-2-2-2-2-2-2-2-2-2-2-2-2-2-2-2-2--------------------------------------|
A|--------------------------------------------------------------------------|
D|-------------------------------------3-3-3-3-3-3-3-0-0-0-0-0-0-0-0-0------|

E|--------------------------------------------------------------------------|
B|--------------------------------------------------------------------------|
G|---------------------------------------7-7-5-5----------------------------|
D|-7-7-7-7-7-7-7-7-7-7-7-7-7-7-7-7---------------3-3-3-3-2-2-2-2-2-2-2-2-2-2|
A|--------------------------------------------------------------------------|
D|---------------------------------(5/7)------------------------------------|
                                Bass^
                                               Pre-Solo: 2:30-2:58
E|--------------------------------------------------------------------------|
B|--------------------------------------------------------------------------|
G|--------------------------------------------------------------------------|
D|-2-2-2-2-2-2--------------------------------------------------------------|
A|---------------------------------------------0-0-0-0-0-0-0-0-0-0-0-0-0-0-0|
D|-------------3-3-3-3-3-3-3-0-0-0-0-0-0-0-0-0-0-0-0-0-0-0-0-0-0-0-0-0-0-0-0|
                                           P.M.* * * * * * * * * * * * * * *

E|--------------------------------------------------------------------------|
B|--------------------------------------------------------------------------|
G|--------------------------------------------------------------------------|
D|---------------------------------------7-7-7-7-7-7-7-7-9-9-9-9-10-10-10-10|
A|-0-0-0-3-3-3-3-3-3-3-3-3-3-3-3-3-3-3-3-7-7-7-7-7-7-7-7-7-7-7-7-7--7--7---7|
D|-0-0-0-3-3-3-3-3-3-3-3-3-3-3-3-3-3-3-3-7-7-7-7-7-7-7-7-7-7-7-7-7--7--7---7|
   * * * * * * * * * * * * * * * * * * * * * * * * * * * * * * * *  *  *   *
                          No tempo change, just the 10s messed it up^

E|--------------------------------------------------------------------------|
B|--------------------------------------------------------------------------|
G|--------------------------------------------------------------------------|
D|--------------------------------------------------------------------------|
A|-5-5-5-5-5-5-5-5-5-5-5-5-5-5-5-5-3-3-3-3-3-3-3-3-3-3-3-3-3-3-3-3-7-7-7-7-7|
D|-5-5-5-5-5-5-5-5-5-5-5-5-5-5-5-5-3-3-3-3-3-3-3-3-3-3-3-3-3-3-3-3-7-7-7-7-7|
   * * * * * * * * * * * * * * * * * * * * * * * * * * * * * * * * * * * * *
                                                             Solo 2:59-3:32
E|--------------------------------------------------------------------------|
B|--------------------------------------------------------------------------|
G|---------------------------7-7-7-7-7-7-7-7-7-7-7-7-7-7-7-7----------------|
D|-7-7-7-9-9-9-9-10-10-10-10-5-5-5-5-5-5-5-5-5-5-5-5-5-5-5-5-7-7-7-7-7-7-7-7|
A|-7-7-7-7-7-7-7-7--7--7--7--5-5-5-5-5-5-5-5-5-5-5-5-5-5-5-5-7-7-7-7-7-7-7-7|
D|-7-7-7-7-7-7-7-7--7--7--7--5-5-5-5-5-5-5-5-5-5-5-5-5-5-5-5-7-7-7-7-7-7-7-7|
   * * * * * * * *  *  *  *  * * * *
         Guitar 1's tremolo solo (this is what guitar 2 does)^

E|--------------------------------------------------------------------------|
B|--------------------------------------------------------------------------|
G|--------------------------------------------------------------------------|
D|-7-7-7-7-7-7-7-7-7-7-7-7-7-7-7-7-7-7-7-7-7-7-7-7-5-5-5-5-5-5-5-5-5-5-5-5-5|
A|-7-7-7-7-7-7-7-7-7-7-7-7-7-7-7-7-7-7-7-7-7-7-7-7-5-5-5-5-5-5-5-5-5-5-5-5-5|
D|-7-7-7-7-7-7-7-7-7-7-7-7-7-7-7-7-7-7-7-7-7-7-7-7-5-5-5-5-5-5-5-5-5-5-5-5-5|

E|--------------------------------------------------------------------------|
B|--------------------------------------------------------------------------|
G|--------------------------------------------------------------------------|
D|---------2-------------3~7-7-7-7-7-7-7-7-7-7-7-7-7-7-7-7-7-7-7-7-7-7-7-7-7|
A|-5-5-5-3---3---0-3-5-0---7-7-7-7-7-7-7-7-7-7-7-7-7-7-7-7-7-7-7-7-7-7-7-7-7|
D|-5-5-5-3-----0-----------7-7-7-7-7-7-7-7-7-7-7-7-7-7-7-7-7-7-7-7-7-7-7-7-7|


E|--------------------------------------------------------------------------|
B|--------------------------------------------------------------------------|
G|--------------------------------------------------------------------------|
D|-7-7-7-7-7-7-7------------------------------------2---------------3~------|
A|-7-7-7-7-7-7-7-5-5-5-5-5-5-5-5-5-5-5-5-5-5-5-5-3---3-0---0-3-5-0----------|
D|-7-7-7-7-7-7-7-5-5-5-5-5-5-5-5-5-5-5-5-5-5-5-5-3-------0------------------|


Beginning of verse: 3:33-3:48
Note: This part is tricky, very. Right now I don't have the time to tab it so here's a
basic and most likely inaccurate version. I'll update when I got time i promise.
E|--------------------------------------------------------------------------|
B|--------------------------------------------------------------------------|
G|--------------------------------------------------------------------------|
D|----------0------------0--------------------0-------------0---------------|
A|--------0---0--------0---0----------------0---0---------0---0-------------|
D|----3/7-------7--3/7-------7--3-3-3-0-3/7-------7---3/7-------3-3-3-0-3/7-|

                                                             Verse: 3:49-4:22
E|--------------------------------------------------------------------------|
B|--------------------------------------------------------------------------|
G|--------------------------------------------------------------------------|
D|---0------------0--------------------0-------------0-----------3/7-7-7-7-7|
A|-0---0--------0---0----------------0---0---------0---0---------3/7-7-7-7-7|
D|-------7--3/7-------7--3-3-3-0-3/7-------7---3/7-------3-3-3-0-3/7-7-7-7-7|
                                                                 Speak

E|--------------------------------------------------------------------------|
B|--------------------------------------------------------------------------|
G|--------------------------------------------------------------------------|
D|-3/7-7-7-7-7-3-3-3-3-3/7-7-7-7-7-3/7-7-7-7-7-3-3-3-3-3/7-7-7-7-7-3/7-7-7-7|
A|-3/7-7-7-7-7-3-3-3-3-3/7-7-7-7-7-3/7-7-7-7-7-3-3-3-3-3/7-7-7-7-7-3/7-7-7-7|
D|-3/7-7-7-7-7-3-3-3-3-3/7-7-7-7-7-3/7-7-7-7-7-3-3-3-3-3/7-7-7-7-7-3/7-7-7-7|
   up              my  ears are growing weary     I'll sing this 'till the


E|--------------------------------------------------------------------------|
B|--------------------------------------------------------------------------|
G|--------------------------------------------------------------------------|
D|-7-7-3-3-3-3-3/7-7-7-7-7-3/7-7-7-7-7-3-3-3-3-3/7-7-7-7-7-3/7-7-7-7-7-3-3-3|
A|-7-7-3-3-3-3-3/7-7-7-7-7-3/7-7-7-7-7-3-3-3-3-3/7-7-7-7-7-3/7-7-7-7-7-3-3-3|
D|-7-7-3-3-3-3-3/7-7-7-7-7-3/7-7-7-7-7-3-3-3-3-3/7-7-7-7-7-3/7-7-7-7-7-3-3-3|
  end     and watch the waves crash over me    speak       up             my


E|--------------------------------------------------------------------------|
B|--------------------------------------------------------------------------|
G|--------------------------------------------------------------------------|
D|-3/7-7-7-7-7-3/7-7-7-7-3-3-3-3-3/7-7-7-7-7-3/7-7-7-7-7-3-3-3-3-3/7-7-7-7-7|
A|-3/7-7-7-7-7-3/7-7-7-7-3-3-3-3-3/7-7-7-7-7-3/7-7-7-7-7-3-3-3-3-3/7-7-7-7-7|
D|-3/7-7-7-7-7-3/7-7-7-7-3-3-3-3-3/7-7-7-7-7-3/7-7-7-7-7-3-3-3-3-3/7-7-7-7-7|
   ears are growing weary   I'll sing this 'till the end     and watch the


E|--------------------------------------------------------------------------|
B|--------------------------------------------------------------------------|
G|--------------------------------------------------------------------------|
D|-7-7-7-3/7-7-7-7-7-/3-3-3-3\----------------------------------------------|
A|-7-7-7-3/7-7-7-7-7--3-3-3-3--dont-P.M.,-just-put-your-fingers-over--------|
D|-7-7-7-3/7-7-7-7-7-\3-3-3-3/-the-3rd-fret-and-hit-the-strings-4x----------|
 waves crash over me

Chorus: 4:23-4:55 (Just Spencer this time.)
E|--------------------------------------------------------------------------|
B|--------------------------------------------------------------------------|
G|--------------------------------------------------------------------------|
D|-7-7-7-7-7-7-7-7-7-7-7-7-7-7-7-7-9-9-9-9-9-9-9-9-9-9-9-9-9-9-9-9-5-5-5-5-5|
A|-7-7-7-7-7-7-7-7-7-7-7-7-7-7-7-7-7-7-7-7-7-7-7-7-7-7-7-7-7-7-7-7-5-5-5-5-5|
D|-7-7-7-7-7-7-7-7-7-7-7-7-7-7-7-7-7-7-7-7-7-7-7-7-7-7-7-7-7-7-7-7-5-5-5-5-5|
           Not  to  much  to over(rest)come      with enough       time to


E|--------------------------------------------------------------------------|
B|--------------------------------------------------------------------------|
G|--------------------------------------------------------------------------|
D|-5-5-5-5-5-5-5-5-5-5-5---2---------------3~3------------------------------|
A|-5-5-5-5-5-5-5-5-5-5-5-3---3-0---3-5-3-0----------------------------------|
D|-5-5-5-5-5-5-5-5-5-5-5-3-------0------------------------------------------|
   turn     it    all   around,


E|--------------------------------------------------------------------------|
B|--------------------------------------------------------------------------|
G|--------------------------------------------------------------------------|
D|-7-7-7-7-7-7-7-7-7-7-7-7-7-7-7-7-9-9-9-9-9-9-9-9-9-9-9-9-9-9-9-9-5-5-5-5-5|
A|-7-7-7-7-7-7-7-7-7-7-7-7-7-7-7-7-7-7-7-7-7-7-7-7-7-7-7-7-7-7-7-7-5-5-5-5-5|
D|-7-7-7-7-7-7-7-7-7-7-7-7-7-7-7-7-7-7-7-7-7-7-7-7-7-7-7-7-7-7-7-7-5-5-5-5-5|
           In  a  picture  per fect        scenery    I've    become   a


E|--------------------------------------------------------------------------|
B|--------------------------------------------------------------------------|
G|--------------------------------------------------------------------------|
D|-5-5-5-5-5-5-5-5-5-5-5---2---------------3~3------------------------------|
A|-5-5-5-5-5-5-5-5-5-5-5-3---3-0---3-5-3-0----------------------------------|
D|-5-5-5-5-5-5-5-5-5-5-5-3-------0------------------------------------------|
   stick   figure   illistration


E|--------------------------------------------------------------------------|
B|--------------------------------------------------------------------------|
G|--------------------------------------------------------------------------|
D|-3/7-7-7-7-7-3/7-7-7-7-3-3-3-3-3/7-7-7-7-7-3/7-7-7-7-3-3-3-3--------------|
A|-3/7-7-7-7-7-3/7-7-7-7-3-3-3-3-3/7-7-7-7-7-3/7-7-7-7-3-3-3-3--------------|
D|-3/7-7-7-7-7-3/7-7-7-7-3-3-3-3-3/7-7-7-7-7-3/7-7-7-7-3-3-3-3--------------|
       My eyes roll back and  focous         on what's ahead,


E|--------------------------------------------------------------------------|
B|--------------------------------------------------------------------------|
G|--------------------------------------------------------------------------|
D|-3/7-7-7-7-7-3/7-7-7-7-7-3-3-3-3-3/7-7-7-7-7-3/7-7-7-7-7-3-3-3-3----------|
A|-3/7-7-7-7-7-3/7-7-7-7-7-3-3-3-3-3/7-7-7-7-7-3/7-7-7-7-7-3-3-3-3----------|
D|-3/7-7-7-7-7-3/7-7-7-7-7-3-3-3-3-3/7-7-7-7-7-3/7-7-7-7-7-3-3-3-3----------|
       I can still stand if you lend the hand to brace me,


Tremelo Solo Part 2 Fill: 5:13-5:30
E|----------------------------------------------------------------------------|
B|----------------------------------------------------------------------------|
G|----------------------------------------------------------------------------|
D|-3/7-7-7-7-7-3/7-7-7-7-3-3-3-3-3/7-7-7-7-7-3/7-7-7-7-3-3-3-3----------------|
A|-3/7-7-7-7-7-3/7-7-7-7-3-3-3-3-3/7-7-7-7-7-3/7-7-7-7-3-3-3-3----------------|
D|-3/7-7-7-7-7-3/7-7-7-7-3-3-3-3-3/7-7-7-7-7-3/7-7-7-7-3-3-3-3----------------|
      I'll take this on my      own


E|--------------------------------------------------------------------------|
B|--------------------------------------------------------------------------|
G|--------------------------------------------------------------------------|
D|-3/7-7-7-7-7-3/7-7-7-7-3-3-3-3-3/7-7-7-7-7-3/7-7-7-7-3-3-3-3-0~-----------|
A|-3/7-7-7-7-7-3/7-7-7-7-3-3-3-3-3/7-7-7-7-7-3/7-7-7-7-3-3-3-3-0~-----------|
D|-3/7-7-7-7-7-3/7-7-7-7-3-3-3-3-3/7-7-7-7-7-3/7-7-7-7-3-3-3-3-0~-----------|
      I'll take this on my      own


Intro (Keyboard): 5:31-6:13
E|--------------------------------------------------------------------------|
B|--------------------------------------------------------------------------|
G|--------------------------------------------------------------------------|
D|--------------------------------------------------------------------------|
A|-5-8-7~--------5-8-7~---------5-3~-------0~-------------------------------|
D|----------------------------3---------------------------------------------|

        (2, 3, 4,)    (2, 3, 4)    (2, 3, 4)


AND THAT'S IT. THIS TAB TOOK ME FOREVER TO DO, SO COMMENT IF YOU'D LIKE TO, 'CAUSE I'D
TO KNOW HOW HOURS IN FRONT OF A SCREEN PAIED OFF LOL. Enjoy the tab, and I hope it's accurate.


Peace/ Anarchy, Apathy/Compassion,

VxIxOxLxExNxT_AxNxGxExL
Tap to rate this tab
# A B C D E F G H I J K L M N O P Q R S T U V W X Y Z