Song name
# A B C D E F G H I J K L M N O P Q R S T U V W X Y Z

Underoath - The Best Of Me tab

Hey ppl,here is one great song,one of my favs by underoath
here is my tab and i know its little hard to get it
but listen to live version and you ll get it =))) 
enjoy
Tabbed by:Ljubesic
Tunning-Drop D

     E  E  E  E  E   E   E   E      E   E   E   E   E   E   E   E   
E||-----------L--x---x----------|----------------------------------|
B||-----------L--x---x----------|----------------------------------|
G||-----------L--x---x----------|-----------------------L----------|
D||--7--L--7--L--x---x--10--10--|---L--10--10--10--10---L--10--10--|
A||--5--L--5--L--x---x---7---7--|---L---7---7---7---7---L---7---7--|
D||--5--L--5--L--x---x---7---7--|---L---7---7---7---7---L---7---7--|


   E   E   E    E    E    E    E    E      E   E   E   E   E   E   E   E   
------------------------------------x--|---------------------------x---x--|
---------------------------------------|---------------------------x---x--|
-------L--(9)--(9)--(9)--(9)--(9)---9--|-------9---9---9---9---L---x---x--|
--10---L--10---10---10---10---10---10--|---L--10--10--10--10---L---x---x--|
---8---L---8----8----8----8----8----8--|---L---8---8---8---8---L---x---x--|
---8---L---8----8----8----8----8----8--|---L---8---8---8---8---L---x---x--|


  E  E  E  E  E   E   E   E      E   E   E   E   E   E   E   E   
-----------L--x--------------|----------------------------------|
-----------L--x--------------|----------------------------------|
-----------L--x--------------|-----------------------L----------|
--7--L--7--L--x--10--10--10--|---L--10--10--10--10---L--10--10--|
--5--L--5--L--x---7---7---7--|---L---7---7---7---7---L---7---7--|
--5--L--5--L--x---7---7---7--|---L---7---7---7---7---L---7---7--|


  E  E   E  E   E   E   E   E     W                   E  E  E  E  E  E   E  E   
--x--x-------------------------|-------------------|---------------------------|
--x--x-------------------------|-------------------|---------------------------|
--x--x-------------------------|-------------------|--7--L--7--7--7--7s--L--9--|
--x--x--10-----10--10--10--10--|-------------------|-----L---------------------|
--x--x---8------8---8---8---8--|-------------------|--5--L--5--5--5--5s--L--7--|
--x--x---8--L---8---8---8---8--|-------------------|---------------------------|


  E  E  E  E  E  E  E   E      E   E   E   E   E   E   E   E   
---------------------------|----------------------------------|
---------------------------|----------------------------------|
--9--9--9--9--9--9--9--10--|---L--10--10--10--10--10--10--10--|
---------------------------|----------------------------------|
--7--7--7--7--7--7--7---8--|---L---8---8---8---8---8---8---8--|
---------------------------|----------------------------------|


   E   E   E   E  E  E  E  E     E  E  E  E  E  E  E  E   
------------------------------|--------------------------|
------------------------------|--------------------------|
--10--10--10--10--x--x--x--x--|--7--7--7--7--9--9--9--9--|
------------------x--x--x--x--|--------------------------|
---8---8---8---8--x--x--x--x--|--5--5--5--5--7--7--7--7--|
------------------------------|--------------------------|


  E  E   E   E   E  E  E  E      E   E   E   E   E   E   E   E   
-----------------------------|----------------------------------|
-----------------------------|----------------------------------|
--L--9---L--10---------------|--10--10--10--10--10--10--10--10--|
-----L---L------10--L--L--L--|----------------------------------|
-----------------------------|---8---8---8---8---8---8---8---8--|
-----------------------------|----------------------------------|


   E   E   E   E   E   E   E   E     E  E   E  E  E   
----------------------------------|------------------|
----------------------------------|------------------|
--10--10--10--10--10--10--10--10--|--9--5--10--9--5--|
----------------------------------|------------------|
---7---7---7---7---7---7---7---7--|--7--3---8--7--3--|
----------------------------------|------------------|


   E   E   E   E   E   E   E   E      E   E   E   E   E   E   E   E   
----------------------------------|----------------------------------|
----------------------------------|----------------------------------|
--10--10--10--10--10--10--10--10--|--10--10--10--10--10--10--10--10--|
----------------------------------|----------------------------------|
---8---8---8---8---8---8---8---8--|---7---7---7---7---7---7---7---7--|
----------------------------------|----------------------------------|


  E   E  E  E   E  E  E   E     E  E   E  E  E   E  E  E   
-----------------------------|----------------------------|
-----------------------------|----------------------------|
--9---------9---------9------|-----9---------9------------|
-----10--------10--------10--|--------10--------10--------|
---------8---------8---------|--8--L---L--8--L---L--8--L--|
-----------------------------|----------------------------|


  E  E  E  E  E  E  E  E     E  E  E  E  E  E  E  E     E  E  E  E  E  E  E   
--------------------------|--------------------------|-----L-----------------|
--------------------------|--------------------5--L--|--------------5--5-----|
--3--L--5--L--7--L--3--L--|--5--L--------------9--L--|--------------9--9-----|
--------------------------|--------0--0--0--0--------|--0--0--0--0--------L--|
--1--L--3--L--5--L--1--L--|--3--L--0--0--0--0--------|--0--0--0--0-----------|
--------------------------|--------0--0--0--0--------|--0--0--0--0-----------|


  E  E  E  E  E  E  E  E     E  E  E  E   E   E   E   E   
--------------------------|------------------------------|
--------------------------|------------------------------|
--7--7--7--7--7--7--7--7--|--9--9--9--9--10--10--10--10--|
--------------------------|------------------------------|
--5--5--5--5--5--5--5--5--|--7--7--7--7---8---8---8---8--|
--------------------------|------------------------------|


   E  E  E   E   E  E  E  E      H         H          
-----------------------------|----------------------||
-----------------------------|----------------------||
--10--9--9--10--10--L--9--L--|-------------9--------||
-----------------------------|--10--------10--------||
---8--7--7---8---------------|-------------0--------||
-----------------------------|-------------0--------||




Duration Legend
---------------
W - whole
H - half
Q - quarter
E - 8th
S - 16th
T - 32nd
X - 64th
. - note dotted
|-n-|  - n-tuplets


Tablature Legend
----------------
L - tied note
x - dead note
g - grace note
(n) - ghost note
> - accentuded note
NH - natural harmonic
AH - artificial harmonic
TH - tapped harmonic
SH - semi harmonic
PH - pitch harmonic
h - hammer on
p - pull off
b - bend
br - bendRelease
pb - preBend
pbr - preBendRelease
brb - bendReleaseBend
\n/ - tremolo bar dip
\n - tremolo bar dive
-/n - tremolo bar Release up
/n\ - tremolo bar inverted dip
/n - tremolo bar return
-\n - tremolo bar Release down
S - shift slide
s - legato slide
/ -  slide into from below or out of upwards
\ -  slide into from above or out of downwards
~ - vibrato
W - wide vibrato
tr - trill
TP - tremolo picking
T - tapping
S - slap
P - pop
< - fade in
^ - brush up
v - brush down
Tap to rate this tab
 
# A B C D E F G H I J K L M N O P Q R S T U V W X Y Z