Song name
# A B C D E F G H I J K L M N O P Q R S T U V W X Y Z

Underoath - Reinventing Your Exit tab

Tabbed by: Hero of body
E-mail: Ecka_Marvin01@yahoo.com
INTRO(2X)
G|---------------------------------------------------------------------------|
D|---------------------------------------------------------------------------|
A|--------------------3------------------------------------------------------|
E|----7------------------------------3-------------------5-------------------|

VERSE(2X)
G|---------------------------------------------------------------------------|
D|---------------------------------------------------------------------------|
A|--------------------3------------------------------------------------------|
E|----7------------------------------3-------------------5-5555--------------|

IVINCIBLE!!!! invincible!!!(2x)
G|---------------------------------------------------------------------------|
D|---------------------------------------------------------------------------|
A|-------------------33333333333333333---------------------------------------|
E|----777777777777777-----------------33333333333333333--5555555555555555555-|

It starts again....(2x)
G|---------------------------------------------------------------------------|
D|---------------------------------------------------------------------------|
A|---------------------------------------------------------------------------|
E|----------7----------------------------3--------------5--------------------|

Your uninviting
G|---------------------------------------------------------------------------|
D|---------------------------------------------------------------------------|
A|---------------------------------------------------------------------------|
E|----777777777777777--3333333333333333--5555555555555555--222222222222222---|

We all!!! want to be!!(2x)
G|---------------------------------------------------------------------------|
D|---------------------------------------------------------------------------|
A|---------------------------------------------------------------------------|
E|---3333333333333333333333333333333333---7777777777777777--55555555555555---|

--------------------------------------REST------------------------------------

Chorus(8x)
G|---------------------------------------------------------------------------|
D|---------------------------------------------------------------------------|
A|-------------------33333333333333333---------------------------------------|
E|----777777777777777-----------------33333333333333333--5555555555555555555-|

Its you and me...(2x)
G|---------------------------------------------------------------------------|
D|---------------------------------------------------------------------------|
A|---------------------------------------------------------------------------|
E|----------7----------------------------3--------------5--------------------|

You broke my heart again this time...
G|---------------------------------------------------------------------------|
D|---------------------------------------------------------------------------|
A|---------------------------------------------------------------------------|
E|----777777777777777--3333333333333333--5555555555555555--222222222222222---|

We all!!! want to be!!(2x)
G|---------------------------------------------------------------------------|
D|---------------------------------------------------------------------------|
A|---------------------------------------------------------------------------|
E|---3333333333333333333333333333333333---7777777777777777--55555555555555---|

Chorus(8x)
G|---------------------------------------------------------------------------|
D|---------------------------------------------------------------------------|
A|-------------------33333333333333333---------------------------------------|
E|----777777777777777-----------------33333333333333333--5555555555555555555-|

G|---------------------------------------------------------------------------|
D|---------------------------------------------------------------------------|
A|---------------------------------------------------------------------------|
E|---7777---7777---------3333-----------5555555-5----5-------------------------|

G|----------------------------------------|
D|-----=----------------------------------|
A|----------------------------------------|
E|-----------------0-7--------------------|

--------------------------------------REST-----------------------------------
(2x)
G|---------------------------------------------------------------------------|
D|---------------------------------------------------------------------------|
A|--------------------333----------------------------------------------------|
E|----777------------------------------333-------------------555-------------|

This is the way I.....(2x)
G|---------------------------------------------------------------------------|
D|---------------------------------------------------------------------------|
A|-------------------33333333333333333---------------------------------------|
E|----777777777777777-----------------33333333333333333--5555555555555555555-|

chorus(8x)
G|---------------------------------------------------------------------------|
D|---------------------------------------------------------------------------|
A|-------------------33333333333333333---------------------------------------|
E|----777777777777777-----------------33333333333333333--5555555555555555555-|

G|-----------------------------------|
D|-----------------------------------|
A|-----------------------------------|
E|-------------7---------------------|
Tap to rate this tab
 
# A B C D E F G H I J K L M N O P Q R S T U V W X Y Z